PrimaNota.ru - самый крупный в мире бесплатный архив песенных текстов, аккордов, табулатур и нот


Slo Burn - Snake Hips - таба, видео

Регистрация Запомнить меня
Войти через:  Facebook Google Twitter Vk Yandex Mail.ru

Slo Burn - Snake Hips - таба, видео

Печатать
Просмотров: 42
-------------------------------------------------------------------------------
                             Snake Hips - Slo Burn
-------------------------------------------------------------------------------
Tabbed by: VakiPitsi

Tuning: Drop C (CGCFAD)

  Intro/Verse
D|-------------------------------------------------------------------------------------|
A|-------------------------------------------------------------------------------------|
F|-------------------------------------------------------------------------------------|
C|-----------------------------------------3--------------------------------------5----|
G|------------3----------------------3-----3--------------3-------------------------5--|
C|--0-0-0-3h5---0-0-3p0-0--0-0-0-3h5---0-0-3----0-0-0-3h5---0-0-3p0-0-0--3p0-0-0-------|

  Chorus
D|-------------------------------------------------------------------------------------|
A|-------------------------------------------------------------------------------------|
F|-------------------------------------------------------------------------------------|
C|--0-0-0-------0-0-3p0-0--0-0-0-------0-0-3----0-0-0-------0-0-3p0-0-0--3p0-0-0---5---|
G|--0-0-0-----3-0-0-3pp-0--0-0-0-----3-0-0-3----0-0-0-----3-0-0-3p0-0-0--3p0-0-0-----5-|
C|--0-0-0-3h5---0-0-3p0-0--0-0-0-3h5---0-0-3----0-0-0-3h5---0-0-3p0-0-0--3p0-0-0-------|

  (1:10-1:30)
D|------------------------------------------|
A|------------------------------------------|
F|------------------------------------------|
C|-88888-77777-55555------------------------|
G|-66666-55555-33333------------------------|
C|------------------------------------------|
  
  Solo
D|------------------------------------------------------------------------------------------13----13-----|
A|--------------------------6h8p6--8-8--6h8p6h8p6h8p6h8p6h8p6--8bp6----------------6/8---10----10----10--|
F|---------5h7-7--7-5h7-7-7-----------------------------------------7--5h7p5h7p5-7-----------------------|
C|-5h7-7-7-----------------------------------------------------------------------------------------------|
G|-------------------------------------------------------------------------------------------------------|
C|-------------------------------------------------------------------------------------------------------|

D|-13----13----13p10\8-10-8-8h10p8---------------------|
A|----10---------------------------10-8--8-8-6---------|
F|---------------------------------------------7-------|
C|-----------------------------------------------------|
G|-----------------------------------------------------|
C|-----------------------------------------------------|



************************************

| /   slide up
| \   slide down
| h   hammer-on
| p   pull-off
| ~   vibrato
| +   harmonic
| x   Mute note
| b   Bend
| pb  Pre-bend
| br  Bend release
| pbr Pre-bend release
| brb Bend release bend

************************************
Добавлено: 12.03.2016
Вам также может быть интересно:
Другие материалы по этой песне:
  • Аккорды и текст

Страница создана 12.03.2016
http://primanota.ru/slo-burn/snake-hips-chords.htm
Привет, Гость.
Предлагаем пройти революционный курс по гитаре.
Подарок от PrimaNota.Ru, забирай!