PrimaNota.ru - самый крупный в мире бесплатный архив песенных текстов, аккордов, табулатур и нот


Slo Burn - Round Trip - таба, видео

Регистрация Запомнить меня
Войти через:  Facebook Google Twitter Vk Yandex Mail.ru

Slo Burn - Round Trip - таба, видео

Печатать
Просмотров: 65
-------------------------------------------------------------------------------
                             Round Trip - Slo Burn
-------------------------------------------------------------------------------
Tabbed by: VakiPitsi

Tuning: Drop C (CGCFAD)

D|--------------------------------------|      |---------------------------------------|
A|--------------------------------------|      |---------------------------------------|
F|--------------------------------------| x4   |---------------------------------------|   x8
C|--------------------------------------|      |---0--0--0/8-7--5h7p5--3---------------|
G|---------------8-5--------------------|      |---0--0--0/8-7--5h7p5--3---------------|
C|---0-0--0-0--0-----5h6p5-3------------|      |---0--0--0/8-7--5h7p5--3---------------|

D|---------------------------------------|     |---------------------------------------|              
A|---------------------------------------|     |---------------------------------------|              
F|---------------------------------------| x1  |---------------------------------------| x3 and then  
C|---------------------------------------|     |--0-0-5h7p5--0-3h5p3--0-0-5h7p5--0-----| 
G|-----------------------------------+5+-|     |--0-0-5h7p5--0-3h5p3--0-0-5h7p5--0--5+-|
C|--0-0-5h7p5--0-3h5p3--0-0-5h7p5--0-----|     |--0-0-5h7p5--0-3h5p3--0-0-5h7p5--0-----|              

D|---------------------------------xx-x-xx--|
A|---------------------------------xx-x-xx--|
F|---------------------------------xx-x-xx--|
C|--0-0-5h7p5--0-3h5p3--0-0-5h7p5--xx-x-xx--|
G|--0-0-5h7p5--0-3h5p3--0-0-5h7p5--xx-x-xx--|
C|--0-0-5h7p5--0-3h5p3--0-0-5h7p5--xx-x-xx--|

D|------------------------------------------|
A|------------------------------------------|
F|------------------------------------------| Repeat until the end.
C|--0-0-5h7p5--0-3h5p3--0-0-5h7p5--0--7\\---| At some parts wah is used
G|--0-0-5h7p5--0-3h5p3--0-0-5h7p5--0--5\\---| and only the 6th string is played
C|--0-0-5h7p5--0-3h5p3--0-0-5h7p5--0--------|
  
  Tiny solo until the song fades
D|----------------------------------|
A|----------------------------------|
F|--------5h7-----------------------|
C|----5h7---------------------------|
G|----------------------------------|
C|----------------------------------|


************************************

| /   slide up
| \   slide down
| h   hammer-on
| p   pull-off
| ~   vibrato
| +   harmonic
| x   Mute note
| b   Bend
| pb  Pre-bend
| br  Bend release
| pbr Pre-bend release
| brb Bend release bend

************************************
Добавлено: 12.03.2016
Другие материалы по этой песне:
  • Аккорды и текст

Страница создана 12.03.2016
http://primanota.ru/slo-burn/round-trip-chords.htm
Привет, Гость.
Предлагаем пройти революционный курс по гитаре.
Подарок от PrimaNota.Ru, забирай!