PrimaNota.ru - самый крупный в мире бесплатный архив песенных текстов, аккордов, табулатур и нот


Slo Burn - Positiva - аккорды и текст, видео

Регистрация Запомнить меня
Войти через:  Facebook Google Twitter Vk Yandex Mail.ru

Slo Burn - Positiva - аккорды и текст, видео

Печатать
Просмотров: 180
Positiva
Slo Burn
Positiva - Slo Burn
Tabbed by Phil Mealing (mrmealing(at)gmail.com)

Slo Burn play in drop C but for this tab I stayed in standard tuning, mainly because the 
I'm in is too lazy to tune their guitars down a whole step.
Listen to the song to learn the rythm of it.

Intro and verse -

    C   Eb  D   C   Eb  F
E:|------------------------|
B:|------------------------|
G:|-5---8---7---5---8---10-|
D:|-x---x---x---x---x---x--|
A:|-3---6---5---3---6---8--|
E:|------------------------|


The chorus alternates between these two riffs.
Chorus - Oh yeah, if you listen I'll tell you one time.

    C   Eb  Bb  Ab  G
E:|------------------|
B:|------------------|
G:|-5---8---3--------|
D:|-5---8---3---6---5|
A:|-3---6---1---6---5|
E:|-------------4---3|

Chorus - Oh yeah babe, I know you don't listen so i tell you a second time.

    C   Bb  Ab  G
E:|--------------|
B:|--------------|
G:|-5---3--------|
D:|-5---3---6---5|
A:|-3---1---6---5|
E:|---------4---3|

End of Chorus -

    C
E:|---|
B:|---|
G:|-5-|
D:|-5-|
A:|-3-|
E:|---|
After the first chorus, there's a small pause before going into the verse.
Also, it isn't played before going into the bridge.


Bridge - Give it to me, give it to me...

    C   Eb  D   C   Eb  F
E:|------------------------|
B:|------------------------|
G:|-5---8---7---5---8---10-|
D:|-5---8---7---5---8---10-|
A:|-3---6---5---3---6---8--|
E:|------------------------|

Solo -

E:|------------------------|
B:|------------------------|
G:|-----3-5-3~5~5~5~3------|
D:|-3-5--------------------| X2
A:|------------------------|
E:|------------------------|

E:|---------------------------------|
B:|----------8~8~8~8~-8-6-8-6-8-8~--|
G:|-----3-5~------------------------|
D:|-3-5-----------------------------|
A:|---------------------------------|
E:|---------------------------------|

Outro - Same as verse, only played once.

Song Structure:
Intro
Verse
Chorus
Verse
Chorus x 2
Bridge
Chorus (only for the first two lines)
Outro
Добавлено: 04.04.2012
Другие материалы по этой песне:
  • Аккорды и текст

Страница создана 04.04.2012
http://primanota.ru/slo-burn/positiva-chords.htm
Привет, Гость.
Предлагаем пройти революционный курс по гитаре.
Подарок от PrimaNota.Ru, забирай!