PrimaNota.ru - самый крупный в мире бесплатный архив песенных текстов, аккордов, табулатур и нот


Slipknot - Vermillion pt - аккорды и текст, видео

Регистрация Запомнить меня
Войти через:  Facebook Google Twitter Vk Yandex Mail.ru

Slipknot - Vermillion pt - аккорды и текст, видео

Печатать
Просмотров: 220
Уроки эстрадного вокала в Санкт-Петербурге
Vermillion pt
Slipknot


Tabbed by Oscar Gudino


Standard tuning (EADGBE)

Chords used 

G#m	Bm	C#m	D	Gm
X	X	X	X	X
X	X	X	X	X
X	4	6	7	X
6	4	6	7	5
6	2	4	5	5
4	X	X	X	3

Guitar 1 plays melody
Guitar 2 plays chords

Intro

  G#m	     Bm	     6x
|-------------------|
|-------------------|
|-1--3--------------|
|------2/3----------|
|------------2------|
|------------0------|



Chorus

second time he says  I dont know what to do strum Bm

Bm 			continue struming
I dont know what to do

Bm    	  C#m   D  Bm
When she makes me sane

Keep strumming Bm then guitar 1 strums Em once




PLay intro again
Then the chorus


Second Chorus


Then this part 
But i wont let this build up inside of me

Guitar 1		   8x
  |------------------------|
  |-0--2---2----2--3---3---|
  |------0---0-------0---0-|
  |------------------------|
  |------------------------|
  |------------------------|

Fills pause between each note

Guitar 2	    2x
E|---2-------2-3-2-|
B|-2---0-2-2-------|


Interlude
					       4x
|-x--x-x-x-x--x--x--x--x--x-x-x-x--x--x-x-x-x-|
|-x--x-x-x-x--x--x--x--x--x-x-x-x--x--x-x-x-x-|
|-4--4-4-4-4--4--6--7--x--x-x-x-x--7--7-7-7-7-|
|-4--4-4-4-4--4--6--7--5--5-5-5-5--7--7-7-7-7-|
|-2--2-2-2-2--2--4--5--5--5-5-5-5--5--5-5-5-5-|
|-0--0-0-0-0--0--0--0--3--3-3-3-3--0--0-0-0-0-|



Play intro again


Ending all harmonics	without harmonics
|----------12-----|	|---------12--11--|
|-----12----------|	|-----12----------|
|-12--------------|	|-12--------------|
|-----------------|  or |-----------------|
|--------------5--|	|-----------------|
|-----------------|	|-----------------|


Intro 6x
Chorus
Intro 4x
Chorus
Second Chorus
Interlude
Second Chorus
Intro 
Ending

I love you Cathy this ones for you
 Tabbed by Oscar Gudino moscamuerta2988@yahoo.com

Добавлено: 25.10.2013
Другие материалы по этой песне:
  • Аккорды и текст

Страница создана 25.10.2013
http://primanota.ru/slipknot/vermillion-pt-chords.htm
Привет, Гость.
Предлагаем пройти революционный курс по гитаре.
Подарок от PrimaNota.Ru, забирай!