PrimaNota.ru - самый крупный в мире бесплатный архив песенных текстов, аккордов, табулатур и нот


Slipknot - Vermillion part - бас-таба, видео

Регистрация Запомнить меня
Войти через:  Facebook Google Twitter Vk Yandex Mail.ru

Slipknot - Vermillion part - бас-таба, видео

Печатать
Просмотров: 117


Tuning: Standard (EADG)

Even Eights

Intro  

G|-------------------------------------------------------------------------|
D|-------------------------------------------------------------------------|
A|-------------------------------------------------------------------------|
E|--10-8-7-5-3-5/12--------10-8-7-5-3-5/12---------------------------------|
                     (Rythm : ti,ti,ti,ti,ti,ti,ta)    


        pre-verse

G|-------------------------------------------------------------------------|
D|-------------------------------------------------------------------------|
A|-------------------------------------------------------------------------|
E|--3-5-7-8-10-8/12--------10-8-7-5-3-5/12---------------------------------|

Verse

G|-----------------|
D|-----------------|
A|-----------------|
E|--3-5-2-3-0------|

Chorus x3

G|---------------|
D|---------------|
A|--5--0---3--7--|
E|---------------|

right after the first chorus

G|-----------|
D|-----------|
A|-----7-----|
E|--3-----0--|


right before the big drum solo

G|--------------|
D|--------------|
A|---3-------7--|
E|------3-------|   Play 5 times.... END




| /  slide up
|   slide down
| h  hammer-on
| p  pull-off
| ~  vibrato
| +  harmonic
| x  Mute note

Добавлено: 19.02.2014
Другие материалы по этой песне:
  • Аккорды и текст

Страница создана 19.02.2014
http://primanota.ru/slipknot/vermillion-part-chords.htm
Привет, Гость.
Предлагаем пройти революционный курс по гитаре.
Подарок от PrimaNota.Ru, забирай!