PrimaNota.ru - самый крупный в мире бесплатный архив песенных текстов, аккордов, табулатур и нот


Slipknot - People = S*** - таба, драм-таба, видео

Регистрация Запомнить меня
Войти через:  Facebook Google Twitter Vk Yandex Mail.ru

Slipknot - People = S*** - таба, драм-таба, видео

Печатать
Просмотров: 176
PEOPLE = SHIT
FORM IOWA ALBUM
TUNNING : DROP B 
B F# B E G# C#
NO PEDALS.
FAST ROCK
=====================================================
LEGEND:
=====================================================
p PULL OFF
h HAMMER ON
b BEND (IN SOME PARTS I PUT NOTES)
r RELEASE (HERE I USED FAST RELEASE)
* HALF ARMONIC
/ SLIDE UP
\ SLIDE DOWN
v STACCATO (CUT THE NOTE)
X DEATH NOTE
~~ LET RING (IN A PART I PUT A LARGE SYMBOL)
.  PALM-MUTE NOTE
!  HOLD NOTE (BEND)/FAST-AGGRESIVE NOTE
(0)! FEED BACK (APPEARS WITH SLIDE DOWN, OR UP)
///  TREMOLO PICK
(n)  GHOST NOTE (NOT PLAYED-FAST PICKED)
=====================================================
NOTE: LISTEN CAREFULLY THIS SONG
YOU CAN DO IT IN 2 PARTS WITH HEADPHONES
LISTEN L and R APART ANYONE
=======================================================
IF YOU WANNA HEAR IN HEADPHONES...
GTR 1: MICK THOMSON (RYTHM), "A's" RIFFS, LEFT (L)
GT2 2: JAMES ROOT (SOLOS), "B's" RIFFS, RIGHT (R)
=======================================================

LET'S STARRT MAGGOTS!!!!!  

INTRO: both gtrs
riff 1
C#|-------------------------------------------|-riff 2:-------------------------------x2|
G#|-------------------------------------------|-----------------------------------------|THESE ARE 0's, 1's, 2's
E |----------------------------| staccato |---|-----------------------------------------|AND 3's
B |-----------------------------v--v--v--v----|-----------------------------------------|NOT 11's AND 22's
F#|-6p5----3p2----6p5----3p2----0--0--0--0-X--|---------------------2222-3333------2222-|
B |-6p5-00-3p2-00-6p5-00-3p2-00-0--0--0--0-X--|-0000-1111-0000-1111-----------3333------|
        ..     ..     ..     ..

GTR 1: RIFF 1A: Listen carefully this part when Corey 
screams "AAAAAGGGGHHHHH!!!" 
C#|-------------------------------------------|+ BENDINGS OF 2 and 1/2 
G#|-------------------------------------------|  NOTES, FAST RELEASE
E |-------------------------------------------|   
B |-------------------------------------------|   
F#|-1~~---2*b-----------------3*br------------|
B |-1~~----------1--0--x--x-------------------|  

GTR 2: Riff 1B: Very fast part (214 tempo), meanwhile te GTR 1 does 
half armonic parts
C#|---_-------------|---_-----------------|
G#|-11 \------------|-14 \__--------------|
E |-x--[x28 picks]--|-12_/  \-------------|
B |-8__/------------|--------[x28 picks]--|
F#|-----------------|---------------------|
B |-----------------|---------------------|

Both guitars: riff 2
when all screams "YEEEAAAAHHHH!!"
C#|----------------------------------------x4| THESE ARE 0's, 1's, 2's 
G#|------------------------------------------| AND 3's
E |------------------------------------------| NOT 11's AND 22's
B |------------------------------------------|
F#|---------------------2222-3333------2222--|
B |-0000-1111-0000-1111-----------3333-------|

ENDING OF GTR 1
little riff 3A
C#|---------------------------|
G#|---------------------------|
E |---------------------------|
B |---------------------------|
F#|-Slow bend--------C'MON!!--|
B |-5b6b7b8b9!~~-----19\(0)!--|

ENDING OF GTR 2:
Little riff 3B
C#|---------------------------|
G#|---------------------------|
E |---------------------------|
B |---------------------------|
F#|-1~~~~------------C'MON!!--|
B |-1~~~~------------19\(0)!--|

GTR 2 Starts this part
Riff 4B 
C#|-----------------------------------------------x2|
G#|-------------------------------------------------|
E |-------------------------------------------------|
B |-------------------------------------------------|
F#|-------------------------------------------------|
B |-0-1-1-0h1~--0-1-1-0h5~--0-1-1-0h1~--0-1-1-0h5~--|

GTR 1  starts in the 5th time of GTR 1
Riff 4A
C#|---|---------|----------------------x2|
G#|---|---------|------------------------|
E |---|---------|------------------------|
B |-v-|---------|------------------------|
F#|-0-|---------|------------------------|
B |-0-|-19\(0)!-|-0-1-1-0h1~--0-1-1-0h5~-|

Both GTRS: after of Corey screams
"HERE WE GO AGAIN MOTHERFUCKER!!"
Riff 5
C#|--------------------------------------------------x2|
G#|----------------------------------------------------|
E |----------------------------------------------------|
B |----------------------------------------------------|
F#|-0-1-1-0h1~~--0-1-1-0h5~~--0-1-1-0h1~~--0-1-1-0h5~~-|
B |-0-1-1-0h1~~--0-1-1-0h5~~--0-1-1-0h1~~--0-1-1-0h5~~-|

VERSE: BOTH GTRS 
Riff 6
C#|----------------------------------------------x4|
G#|------------------------------------------------|
E |------------------------------------------------|
B |------------------------------------------------|
F#|------------------------------------------------|
B |-0-1-1-0h1--3h4p3~--00--1~~--0-3h4p3~--00-66-55-|

GTR 2: Little solo, before DJ's part
Riff 7B                         
C#|-----------------------------------------------|
G#|-///--///--------------///--///  Grad Bend    -|
E |--19---20--///--///-----19--20b21b22b23r!\(0)!-| when Corey screams
B |------------21---20---------\____________________| "ONE MORE TIME MOTHERFUCKER!!"
F#|-----------------------------------------------|
B |-----------------------------------------------|

GTR 1: in the GTR 2 solo, does this:
Riff 7A
C#|--------------------------------------x2|
G#|----------------------------------------|
E |----------------------------------------|
B |----------------------------------------|
F#|----------------------------------------|
B |-7-0--8\1--1/4--4/7--7-0--8\1--1/4--4/7-|

VERSE 2:
Riff 6.1 similar at 6
C#|----------------------------------------------x2|
G#|------------------------------------------------|
E |-------------------------___________________________
B |------------------------/-----------------------|   | 
F#|-0-1-1-0h1--3h4p3~--00--1~~--0-3h4p3~--00-66-55-|   This is the end of the riff in 3rd time.
B |-0-1-1-0h1--3h4p3~--00--1~~--0-3h4p3~--00-66-55-| 
    . . . .    .       ..  .    . .       .. .. ..
                          
-Repeat riff 5 the both GTRS
-Repeat riff 7A & 7B

CHORUS PART!!!
WHEN ALL SING "P E O P L E  =  S H I T !! "
GTR 1
RIFF 8A:
C#|--------------------------------------x4|
G#|----------------------------------------|
E |----------------------------------------|
B |----------------------------------------|
F#|-7-0--8\1--1/4--4/7--7-0--8\1--1/4--4/7-|
B |-7-0--8\1--1/4--4/7--7-0--8\1--1/4--4/7-|

GTR 2: A LITTLE FAST
RIFF 8B, A LITTLE VARIATION...
C#|------------------------------------------X4|
G#|--------------------------------------------|
E |-14-14---15------------14-14---15-----------|
B |-X--X----X-------------X--X----X------------|
F#|-12-12-0-13--1/4--4/7--12-12-0-13--1/4--4/7-|
B |-------0-----1/4--4/7--------0-----1/4--4/7-|

NO GTRS IN DRUM'S SOLO....

BREAK, BEFORE VERSE:
GTR 1 STARTS
RIFF 9
C#|---------|--------------------------------x2|
G#|---------|----------------------------------|
E |---------|----------------------------------|
B |---------|----------------------------------|
F#|---------|-00-00-00-00-0h1--00-00-00-00-0h1-|
B |-19\(0)!-|-00-00-00-00-0h1--00-00-00-00-0h1-|
              .. .. .. .. .    .. .. .. .. 

GTR 2 enters in the 2ND time
Riff 9
C#|---------|--------------------------------x1|
G#|---------|----------------------------------|
E |---------|----------------------------------|
B |---------|----------------------------------|
F#|---------|-00-00-00-00-0h1--00-00-00-00-0h1-|
B |-19\(0)!-|-00-00-00-00-0h1--00-00-00-00-0h1-|
              .. .. .. .. .    .. .. .. .. 

Corey again screams "C'MOOOONN!!"

AFTER scream 
Riff 10: BOTH GTRS
C#|------------------------------------------------------------------x1|+IN THIS PART, ARE 1st, 2nd AND 4th FTS
G#|--------------------------------------------------------------------| NOT "11'S" NO "22's"
E |--------------------------------------------------------------------|
B |--------------------------------------------------------------------|
F#|-11--11--11--22---11--11--22--44---11--11--11--22---11--11--22--44--|
B |-11--11--11--22---11--11--22--44---11--11--11--22---11--11--22--44--|

VERSE 3: COREY STARTS TO SING...
SAME RIFF 10 BOTH GTRS
C#|------------------------------------------------------------------x3|
G#|--------------------------------------------------------------------|
E |--------------------------------------------------------------------|
B |--------------------------------------------------------------------|
F#|-11--11--11--22---11--11--22--44---11--11--11--22---11--11--22--44--|
B |-11--11--11--22---11--11--22--44---11--11--11--22---11--11--22--44--|

WHEN COREY SAYS:
RIFF 10.1, A LITTLE VARIATION 
I'M NOT LIKE YOU, I'VE JUST FUCK UP.... ETC....ETC
C#|------------------------------------------------------------------x1|
G#|--------------------------------------------------------------------|
E |--------------------------------------------------------------------|
B |--------------------------------------------------------------------|
F#|-11--11--11--22---11--11--22--44---11--11--11--22---11--11--22--44--|
B |-11--11--11--22---11--11--22--44---11--11--11--22---11--11--22--44--|
    ..  ..  ..  ..   ..  ..  ..  ..  ..   ..  ..  ..  ..  ..   ..  ..

AFTER SCREAM: 
GTR 2
C#|----------------------------------------|
G#|----------------------------------------|
E |----------------------------------------|
B |----------------------------------------|
F#|-0~~~~~~~~~~~~~~~~~~~~~~~~~~~~~~~~~~~~~-|
B |-0~~~~~~~~~~~~~~~~~~~~~~~~~~~~~~~~~~~~~-|


GTR 1: REPEATS Riff 7A
C#|--------------------------------------x2|
G#|----------------------------------------|
E |----------------------------------------|
B |----------------------------------------|
F#|----------------------------------------|
B |-7-0--8\1--1/4--4/7--7-0--8\1--1/4--4/7-|

RIFF 8A.1: SIMILAR AT 8A
BOTH GTRS
C#|--------------------------------------x2|
G#|----------------------------------------|
E |----------------------------------------|
B |----------------------------------------|
F#|-7-0--8\1--1/4--4/7--7-0--8\1--1/4--4/7-|
B |-7-0--8\1--1/4--4/7--7-0--8\1--1/4--4/7-|
    . .  .    .    .    . .  .    .    .

AHH..... " P E O P L E  =  S H I T !! "

LITTLE RIFF AFTER SCREAM
BOTH GTRS
C#|-------------|
G#|-------------|
E |-------------|
B |-------------|
F#|-------------|
B |-(0)/17\(0)!-| 

AND START TO DO THE RIFF 8A & 8B

REPEAT CHORUS PART 2 TIMES

OUTRO: VERY SIMILAR AT INTRO, 
A LITTLE VARIATION
RIFF 1.1 (13)                                 "GOT THAT, RIGHT!!"
C#|------------------------------____________/
G#|-----------------------------/--------|
E |-----------------------------staccato-|
B |-----------------------------v--v--v--|
F#|-6p5----3p2----6p5----3p2----0--0--0--|
B |-6p5-00-3p2-00-6p5-00-3p2-00-0--0--0--|
        ..     ..     ..     ..
Добавлено: 08.03.2016
Другие материалы по этой песне:
  • Аккорды и текст

Страница создана 30.07.2012
http://primanota.ru/slipknot/people-s-chords.htm
Привет, Гость.
Предлагаем пройти революционный курс по гитаре.
Подарок от PrimaNota.Ru, забирай!