PrimaNota.ru - самый крупный в мире бесплатный архив песенных текстов, аккордов, табулатур и нот


Slipknot - Gently - аккорды и текст, таба, бас-таба, видео

Регистрация Запомнить меня
Войти через:  Facebook Google Twitter Vk Yandex Mail.ru

Slipknot - Gently - аккорды и текст, таба, бас-таба, видео

Печатать
Просмотров: 1154
Gently
Slipknot
Intro:
Guitare clair
[D--------------1h-0----------------------0-----------
A--------3-----------3-------------3--------3-----3--
F-----2-----2-----------2-------3-----3--------3-----
C--0-------------------------------------------------
G----------------------------1-----------------------
C----------------------------------------------------

--------------------------------------------------------------4h-5--------
-----------------------------------------------------5h-6-----------6-----
--------3-----3-------3---------3-----2--------------------------------7--
-----2--------------------------------------------0--------0--------------
--0--------0-------0---------0-----0-------0------------------------------
--------------------------------------------------------------------------

-----8h-6-----------6-----------------------------------------------------
-----------6-----6-----6--------------------------------------------------
--------------7-------------------3-----3-------3---------3-----2---------
--0----------------------------2------------------------------------------
----------------------------0--------0-------0---------0-----0-------0----
--------------------------------------------------------------------------

--------------1h-0----------------------0------------------------------------
--------3-----------3-------------3--------3-----3---------------------------
-----2-----2-----------2-------3-----3--------3-------------3-----3-------3--
--0------------------------------------------------------2-------------------
----------------------------1-------------------------0--------0-------0-----
-----------------------------------------------------------------------------

-------------------------------------4h-5--------
----------------------------5h-6-----------6-----
-------3-----2--------------------------------7--
-------------------------0--------0--------------
----0-----0-------0------------------------------
-------------------------------------------------

-----8--6h8h6----------6-----------------------------------------------------
--------------6-----6-----6--------------------------------------------------
-----------------7-------------------3-----3-------3---------3-----2---------
--0-------------------------------2------------------------------------------
-------------------------------0--------0-------0---------0-----0-------0----
-----------------------------------------------------------------------------

--------------1h-0----------------------0------------------------------------
--------3-----------3-------------3--------3-----3---------------------------
-----2-----2-----------2-------3-----3--------3-------------3-----3-------3--
--0------------------------------------------------------2-------------------
----------------------------1-------------------------0--------0-------0-----
-----------------------------------------------------------------------------

-------------------------------------4h-5-------------8h-6-----------6-----
----------------------------5h-6-----------6----------------6-----6-----6--
-------3-----2--------------------------------7----------------7-----------
-------------------------0--------0----------------0-----------------------
----0-----0-------0--------------------------------------------------------
---------------------------------------------------------------------------

--------------------------------------------------------------1h-0--------
--------------------------------------------------------3-----------3-----
--------3-----3-------3---------3-----2--------------2-----2-----------2--
-----2--------------------------------------------0-----------------------
--0--------0-------0---------0-----0-------0------------------------------
--------------------------------------------------------------------------

--------------0-----------------------------------------------------------
--------3--------3-----3--------------------------------------------------
-----3-----3--------3-------------3-----3-------3---------3-----2---------
-------------------------------2------------------------------------------
--1-------------------------0--------0-------0---------0-----0-------0----
--------------------------------------------------------------------------

--------------4h-5-------------8--6h8h6----------6-----
-----5h-6-----------6-------------------6-----6-----6--
-----------------------7-------------------7-----------
--0--------0----------------0--------------------------
-------------------------------------------------------
-------------------------------------------------------

---------------------------------------------------------------1--0-----0--
---------------------------------------------------------3-----------3-----
--------3-----3-------3---------3-----2---------@-----2-----2--------------
-----2------------------------------------------@--0-----------------------
--0--------0-------0---------0-----0-------0-------------------------------
---------------------------------------------------------------------------

--------------3-------------------------0-----------
--------1--------1-----1----------1--------1-----3--
-----2-----2--------2----------0-----0--------0-----
--3-------------------------------------------------
----------------------------3-----------------------
----------------------------------------------------
                  2x
-----0-----------0-----------------------1--0-----0--
--------3-----------3--------------3-----------3-----
-----------0-----------0--@-----2-----2--------------
--------------------------@--0-----------------------
--1-----------3--------------------------------------
-----------------------------------------------------

--------------3-------------------------0-----------
--------1--------1-----1----------1--------1-----3--
-----2-----2--------2----------0-----0--------0-----
--3-------------------------------------------------
----------------------------3-----------------------
----------------------------------------------------

-----0-----------0------------------------------------------------
--------3-----------3---------------------------------------------
-----------0-----------0------------------------------------------
------------------------------------------------------------------
--1-----------3---------------------------------------------------
------------------------------------------------------------------]

-

Text:		Gently my mind escapes into the relaxing mode of pleasure
A pleasure that will take my mind off the reality of life
My past life
Life as I know it know
And whatever may come it slowly disappears
to somewhere in the back of my mind
It will remain there until I wish to retrieve it

Yes I will stay here for awhile for I need the break
A break from the pressures of life
and everything that lay in the palm of life's hands

This mode is incredible
It's out of this world
Too bad I must always leave it
But that's life

That's life

Shift

-

Text:		Gently, my mind escapes into the relaxing
world of pleasure, a pleasure that'll take
my mind off the reality of my life,
my past life... life as I know it now.

And whatever may come, it slowly
disappears to somewhere in the back
of my mind. It will remain there,
until I wish to retrieve it.

Yes, I will stay here for a while,
for I need the break. A break from the
pressures of life, and everything
that lays in the palm of life's hands.

This mode is incredible. It's out of
this world. Too bad I must always leave it...
... but that's life.
Добавлено: 02.12.2013
Другие материалы по этой песне:

Страница создана 24.02.2012
http://primanota.ru/slipknot/gently-chords.htm
Привет, Гость.
Предлагаем пройти революционный курс по гитаре.
Подарок от PrimaNota.Ru, забирай!