PrimaNota.ru - самый крупный в мире бесплатный архив песенных текстов, аккордов, табулатур и нот


Slipknot - Gehenna - текст песни, таба, бас-таба, видео

Регистрация Запомнить меня
Войти через:  Facebook Google Twitter Vk Yandex Mail.ru

Slipknot - Gehenna - текст песни, таба, бас-таба, видео

Печатать
Просмотров: 858
|---------------------------------------------------------|
|---------------------------------------------------------|
|---------------------------------------------------------|
|------------------------------1--1--1-----0--0--0--------|
|------------------------------1--1--1-----0--0--0--------|    3X
|--16--15--15--15--7--8--9--1--1--1--1--0--0--0--0--------|


|------------------------------------------------------|
|------------------------------------------------------|
|------------------------------------------------------|
|---------------------------1--1--1--1--0--0--0--0-----|
|---------------------------1--1--1--1--0--0--0--0-----| 1X
|--16--15--15--15--7--8--9--1—-1--1--1--0--0--0—-0-----|


|---------------------------------------------------------|
|---------------------------------------------------------|
|---------------------------------------------------------|
|--16--15--15--15--7--8--9--1--1--1--1--0--0- 0--0--0-----|
|--16--15--15--15--7--8--9--1--1--1--1--0--0--0--0--0-----| 4X
|--16--15--15--15--7--8--9--1—-1--1--1--0--0--0—-0--0-----|


Obviously, this is not 100%, but I figured since no one else posted one that actually
like it, I would learn the intro.  So I learned it by ear in about 5-10 minutes, and I
like 10 minutes to tab it out. Its better than nothing and it actually sounds somewhat 
it, not exact though.

Stay (Sic) Maggots
Добавлено: 26.04.2012
Другие материалы по этой песне:

Страница создана 21.02.2012
http://primanota.ru/slipknot/gehenna-chords.htm
Привет, Гость.
Предлагаем пройти революционный курс по гитаре.
Подарок от PrimaNota.Ru, забирай!