PrimaNota.ru - самый крупный в мире бесплатный архив песенных текстов, аккордов, табулатур и нот


Slipknot - Befor I Forget - бас-таба, драм-таба, видео

Регистрация Запомнить меня
Войти через:  Facebook Google Twitter Vk Yandex Mail.ru

Slipknot - Befor I Forget - бас-таба, драм-таба, видео

Печатать
Просмотров: 384
###############################################################################
#This file is the author's own work and represents their interpretation of the#
#song. You may only use this file for private study, scholarship, or research.#
###############################################################################


Used Tab Symbols
_____________________
 h  = Hammer On
 p  = Pull Off
 ~  = Sustain
 v  = Vibrato
 w  = Wide Vibrato
 b  = Bend Up
 hb = Bend Halfway
 /  = Slide Up
 \  = Slide Down
 *  = Trill                        
 x  = Muted Note
 H  = Harmonic
 t  = Right Hand Tap
 :  = Let Ring

Drop B   B F# B E



Intro
E |------------------------------------------------------|
B |------------------------------------------------------|
F#|------------------------------------------------------|  x3
B |-0h2---0h2---0h3---0h2---3p2--------------------------|

E |------------------------------------------------------|
B |------------------------------------------------------|
F#|------------------------------------------------------|  
B |---222--5550--5550------------------------------------| 

Then Repeat intro again but only play 5550 once, and then again and play it twice

E |------------------------------------------------------|
B |------------------------------------------------------|
F#|------------------------------------------------------|
B |----22223---2223---x3-------22223---25550-------------|    x4


E |------------------------------------------------------|
B |------------------------------------------------------|
F#|--7::---10::---9::---8::------------------------------|
B |------------------------------------------------------|


E |------------------------------------------------------|
B |------------------------------------------------------|x2
F#|------------------------------------------------------|
B |--2--025-005--321-------x3---777-87-10-10--555--787---|


E |------------------------------------------------------|
B |------------------------------------------------------|
F#|------------------------------------------------------|  
B |-0h2---0h2---0h3---0h2---3p2--x3-----222---5550-------|


E |------------------------------------------------------|
B |------------------------------------------------------|
F#|------------------------------------------------------|
B |----22223---2223---x3-------22223---25550-------------|    x4


E |------------------------------------------------------|
B |------------------------------------------------------|
F#|--7::---10::---9::---8::------------------------------|
B |------------------------------------------------------|


E |------------------------------------------------------|
B |------------------------------------------------------|x2
F#|------------------------------------------------------|
B |--2--025-005--321-------x3---777-87-10-10--555--787---|


E |------------------------------------------------------|
B |------------------------------------------------------| Until interlude ends
F#|--------------------------------------0--00h3-33------|
B |--3--333333---0--000000---2--222222-------------------|


E |------------------------------------------------------|
B |------------------------------------------------------|x3
F#|------------------------------------------------------|
B |--2--025-005--321-------x3---777-87-10-10--555--787---|


E |------------------------------------------------------|
B |------------------------------------------------------|
F#|------------------------------------------------------|  x7
B |-0h2---0h2---0h3---0h2---3p2--------------------------|


E |------------------------------------------------------|
B |------------------------------------------------------|
F#|------------------------------------------------------|  
B |-222-5550-5550----------------------------------------|

 


Corrections on this Tab :
Corrections are brief messages that point out specific errors and how they
can be fixed. These corrections are intended to correct and enhance the tab.
Do not make a correction unless you have something useful to say that will
improve the tab. Thank you.

Compiled with TabPlayer :: http://www.simoneperandini.com/tabplayer/

Tabbed by :: Jonathan 
TabPlayerUsersEmail: jonathan.goldsmith@hotmail.co.uk
Добавлено: 13.10.2013
Другие материалы по этой песне:
  • Аккорды и текст

Страница создана 13.10.2013
http://primanota.ru/slipknot/befor-i-forget-chords.htm
Привет, Гость.
Предлагаем пройти революционный курс по гитаре.
Подарок от PrimaNota.Ru, забирай!