PrimaNota.ru - самый крупный в мире бесплатный архив песенных текстов, аккордов, табулатур и нот


Slint - Pam - бас-таба, видео

Регистрация Запомнить меня
Войти через:  Facebook Google Twitter Vk Yandex Mail.ru

Slint - Pam - бас-таба, видео

Печатать
Просмотров: 93
----------------------------------------------------------------- 
Pam - Slint
-----------------------------------------------------------------  
Tabbed By :  baklava151
e-mail:  chrismohrfeld@comcast.net 
Tuning: Drop D

Enjoy

Intro riff (0:09) x8

Eighth time, hit the first low D and just let it ring

G|------------|
D|------------|
A|------------|
D|-0----0-----|

Transition at 0:50

G|------------|
D|------------|
A|------------|
D|-0-0-0-0----|

Riff 1 (0:51) x4

G|---------------------------------------------------------|
D|---------------------------------------------------------|
A|----------------------------------5h3-5--1-1-1-----------|
D|-3-3-3--0--0--3-3-3--0--0--3-3-3----------------0--0-----|

Riff 2 (1:16) x4 (Play the first part once to transition into this riff) 
                      
G|---------------|-----------------------------------|
D|---------------|-----------------------------------|
A|---------------|-----------------------------------|
D|-3-3-3--0-2----|-3-5-6---6-6-6-6-6-6-6-6-6-6-6-----|

Riff 3 (1:30)
                             x3
G|------------------------------|----------------------------------------------------|
D|------------------------------|----------------------------------------------------|
A|-4---1--1-1-1-1-1-1-1-1-0-0-0-|-4---1--1-1-1-1-1-1-1-1-----------------------------|
D|------------------------------|------------------------0-0-0-0-0-0-0-0-0-0-0-0-----|

Riff 1 (1:44) x6

Riff 2 (2:20) x4 (Remember the transition)

Riff 3 (2:33) x4

Riff 1 (2:47) x2

Riff 4 (2:59) x12 (Play the first part once to transition into this riff)

G|-------------|--------------------------------|
D|-------------|--------------------------------|
A|-------------|--------------------------------|
D|-3-3-3--0-0--|-6-5-3---5-3-3-5-3-3-5-3-0-0----|

Riff 4a (3:30) Play once

G|----------------------------|
D|----------------------------|
A|----------------------------|
D|-6-5-3---5-3-3-5-3-3-5-3----|

Final riff (D's for days)

G|-------------------------|
D|-------------------------|
A|-------------------------|
D|-0-0-0-0-0-0-0-0-0-0-0---|



| /  slide up
| \  slide down
| h  hammer-on
| p  pull-off
| ~  vibrato
| +  harmonic
| x  Mute note
Добавлено: 30.07.2015
Другие материалы по этой песне:
  • Аккорды и текст

Страница создана 30.07.2015
http://primanota.ru/slint/pam-chords.htm
Привет, Гость.
Предлагаем пройти революционный курс по гитаре.
Подарок от PrimaNota.Ru, забирай!