PrimaNota.ru - самый крупный в мире бесплатный архив песенных текстов, аккордов, табулатур и нот


Slint - Kings Approach - таба, видео

Регистрация Запомнить меня
Войти через:  Facebook Google Twitter Vk Yandex Mail.ru

Slint - Kings Approach - таба, видео

Печатать
Просмотров: 121
Band   : Slint
Song   : King's Approach
Tuning : Standard

the intro is made up of these 2 bits played one after another, it's along these lines.

e|-----------------|     |----------------------|
B|-----------------|     |--9~--9~--9-9~--9~--9-|
G|-0-3-2-0-3-2-0-3-| x4  |-7---7---7-7---7---7--| x4
D|-----------------|     |----------------------|
A|-----------------|     |----------------------|
E|-----------------|     |----------------------|


This is the middle part of the song, this i know is correct.

e|------------------------------|
B|------------------------------|
G|------------------------------|
D|------------------------------|
A|-2--3--4-7-6--9--8--5--7--3---|
E|--00-00-0-0-00-00-00-00-00-00-|
    .. .. . . .. .. .. .. .. ..


when the song starts to speed up, these two riffs are played

This first one is in 4/4     |This is in 6/8
e|-----------------|         |---------------|
B|-----------------|         |---------------|
G|-----------------|         |-10-9-7-10-9-7-| 
D|-79-79-7979-79-79|         |---------------|
A|-----------------|         |---------------|
E|-----------------|         |---------------|
  

This final riff comes in at around 7:20

e|-0--0--0--5--0--0--11--11----|
B|--3--3--3--3--3--3---9---9---|     Sometimes the 4th and 5th open e's are
G|---4--4--4--4--4--4---10--10-|     fretted on 4th.
D|-----------------------------| 
A|-----------------------------|
E|-----------------------------|   


the ending i don't know, people need to add to this as they figure it out.
Добавлено: 01.05.2012
Вам также может быть интересно:
Другие материалы по этой песне:
  • Аккорды и текст

Страница создана 01.05.2012
http://primanota.ru/slint/kings-approach-chords.htm
Привет, Гость.
Предлагаем пройти революционный курс по гитаре.
Подарок от PrimaNota.Ru, забирай!