PrimaNota.ru - самый крупный в мире бесплатный архив песенных текстов, аккордов, табулатур и нот


Slint - Good Morning Captain - текст песни, таба, бас-таба, драм-таба, видео

Регистрация Запомнить меня
Войти через:  Facebook Google Twitter Vk Yandex Mail.ru

Slint - Good Morning Captain - текст песни, таба, бас-таба, драм-таба, видео

Печатать
Просмотров: 164
Slint - Good Morning Captain

Amp Settings:

Bass: 7
Mids: 8
Treble: 6

Effects:

Reverb: 3 (Clean parts only)

Boss HM-2 Heavy Metal

Level: 5
L-Colour: 5
R-Colour: 5
Dist: 8

Boss FZ-2 Hyper Fuzz (Run behind HM-2)

Bass: 5
Treble: 5
Gain: 5
Mode: Gain Boost

Drop D Tuning (DADGBE)

Intro: (Play with thumb)

E|-5-5-5-5-5-5-5-5-5-6-6-6-6-6-6-6-| (x6)
B|-7-7-7-7-7-7-7-7-7-6-6-6-6-6-6-6-|
G|---------------------------------|
D|---------------------------------|
A|---------------------------------|
D|---------------------------------|

Bass: (joins in after Intro riff played twice)

E|-----------------------------------| (x8)
B|-----------------------------------|
G|-----------------------------------|
D|--3-3--------------3-3-------------|
A|-------5-4--5-4-5-------5-5--4-4-5-|
D|-----------------------------------|

Let me in, the voice cried softly,
from outside the wooden door.
Scattered remnants of the ship could be seen in the distance,
Blood stained the icy wall of the shore.

Pre-Chorus:

E|---------------------------------| (x4)
B|-7-7-7-7-7-7-7-7-7---------------|
G|-7-7-7-7-7-7-7-7-7-8-8-8-8-8-8-8-|
D|-7-7-7-7-7-7-7-7-7-8-8-8-8-8-8-8-|
A|-------------------8-8-8-8-8-8-8-|
D|---------------------------------|

Bass:

G|-----------------------------------| (x8)
D|--3-3--------------3-3-------------|
A|-------5-4--5-4-5-------5-5--4-4-5-|
E|-----------------------------------|

I'm the only one left. The storm, took them all,
He managed as he tried to stand.
The tears ran down his face.
Please, it's cold.

Bass:

G|-----------------------------------| (x4)
D|--3-3--------------3-3-------------|
A|-------5-4--5-4-5-------5-5--4-4-5-|
E|-----------------------------------|

Pre-Chorus:

E|---------------------------------| (x4)
B|-7-7-7-7-7-7-7-7-7---------------|
G|-7-7-7-7-7-7-7-7-7-8-8-8-8-8-8-8-|
D|-7-7-7-7-7-7-7-7-7-8-8-8-8-8-8-8-|
A|-------------------8-8-8-8-8-8-8-|
D|---------------------------------|

Chorus:
E|-------------------------------------------------|
B|-------------------------------------------------|
G|-------------------------------------------------|
D|-----0---0---0---0---0-----0---0---------0---0---|
A|---5---5---5---5---5-----5---5-----5---5---5---5-|
D|-0---0---0---0---0---0-4---4-----4---6---6---6---|

Distortion: - HM-2 On

E|---------------------------------------------------|
B|-----------0-----0---------------------------------|
G|-------0-0-0-0---0---------------------------------|
D|-0-0-0-0-0-0-0-0-0-5-5-5-5-5-5-5-5-5-5-5-5-5-5-5-5-|
A|-0-0-0-0-0-0-0-0-0-5-5-5-5-5-5-5-5-5-5-5-5-5-5-5-5-|
D|-0-0-0-0---0-0---0-4-4-4-4-4-4-4-4-6-6-6-6-6-6-6-6-|

Bass:

G|-----------------------------------| (x8)
D|--3-3--------------3-3-------------|
A|-------5-4--5-4-5-------5-5--4-4-5-|
E|-----------------------------------|

Bridge:
E|-----------------------------------| (x4)
B|-----------------------------------|
G|-----------------------------------|
D|--3-3--------------3-3-------------|
A|-------5-4--5-4-5-------5-5--4-4-5-|
D|-----------------------------------|

When he woke, there was no trace of the ship.
Only the dawn was left behind by the storm.
He felt the creaking of the stairs beneath him.
That rose, from the sea, to the door.

Bass:

G|-----------------------------------| (x8)
D|--3-3--------------3-3-------------|
A|-------5-4--5-4-5-------5-5--4-4-5-|
E|-----------------------------------|

Pre-Chorus:

E|---------------------------------| (x4)
B|-7-7-7-7-7-7-7-7-7---------------|
G|-7-7-7-7-7-7-7-7-7-8-8-8-8-8-8-8-|
D|-7-7-7-7-7-7-7-7-7-8-8-8-8-8-8-8-|
A|-------------------8-8-8-8-8-8-8-|
D|---------------------------------|

There was a sound at the window then.
The captain started, his breath was still.
Slowly,
He turned.

Bridge:

E|-------------------------------| (x4)
B|-2-2--3-2-1---1-2-2--3-2-3---1-|
G|-0-0--0-0-0-2-0-0-0--0-0-0-2-0-|
D|------------0--------------0---|
A|-------------------------------|
D|-------------------------------|

Bridge: (Played simultaneously with above)

E|-------------------------------| (x4)
B|-------------------------------|
G|-------------------------------|
D|-------------------------------|
A|-0-0--6-5-4-5-6-0-0--6-6-5-5-6-|
D|-------------------------------|

Chorus:
E|-------------------------------------------------|
B|-------------------------------------------------|
G|-------------------------------------------------|
D|-----0---0---0---0---0-----0---0---------0---0---|
A|---5---5---5---5---5-----5---5-----5---5---5---5-|
D|-0---0---0---0---0---0-4---4-----4---6---6---6---|

Distortion: - HM-2 On

E|---------------------------------------------------| (x4)
B|-----------0-----0---------------------------------|
G|-------0-0-0-0---0---------------------------------|
D|-0-0-0-0-0-0-0-0-0-5-5-5-5-5-5-5-5-5-5-5-5-5-5-5-5-|
A|-0-0-0-0-0-0-0-0-0-5-5-5-5-5-5-5-5-5-5-5-5-5-5-5-5-|
D|-0-0-0-0---0-0---0-4-4-4-4-4-4-4-4-6-6-6-6-6-6-6-6-|

Natural Harmonic: (Clean)

E|--- (Let ring)
B|---
G|-7-
D|---
A|---
D|---

Pre-Chorus:

E|---------------------------------| (x9)
B|-7-7-7-7-7-7-7-7-7---------------|
G|-7-7-7-7-7-7-7-7-7-8-8-8-8-8-8-8-|
D|-7-7-7-7-7-7-7-7-7-8-8-8-8-8-8-8-|
A|-------------------8-8-8-8-8-8-8-|
D|---------------------------------|

Natural Harmonics: (Clean)

Pick natural harmonics moving up the neck, starting
soft, then getting gradually harder for first x5 of
the Pre-Chorus.

Bass: (comes in after x5 of the Pre-Chorus)

G|-----------------------------------| (x10)
D|--3-3--------------3-3-------------|
A|-------5-4--5-4-5-------5-5--4-4-5-|
E|-----------------------------------|

From behind the edge of the windowsill,
There appeared the delicate hand of a child.
His face was flush and timid.
He stared at the captain through frightened eyes.
The captain reached for something to hold on to,
Help me, he whispered, as he rose slowly to his feet.

Bridge:

E|-------------------------------| (x4)
B|-2-2--3-2-1---1-2-2--3-2-3---1-|
G|------------2--------------2---|
D|-------------------------------|
A|-------------------------------|
D|-------------------------------|

Bass:

G|-----------------------------------| (x4)
D|--3-3--------------3-3-------------|
A|-------5-4--5-4-5-------5-5--4-4-5-|
E|-----------------------------------|

The boy's face went pale,
He recognized the sound.
Silently, he pulled down the shade against the shadow.
Lost in the doorstep of the empty house.

Chorus:
E|-------------------------------------------------|
B|-------------------------------------------------|
G|-------------------------------------------------|
D|-----0---0---0---0---0-----0---0---------0---0---|
A|---5---5---5---5---5-----5---5-----5---5---5---5-|
D|-0---0---0---0---0---0-4---4-----4---6---6---6---|

I'm trying to find my way home.
I'm sorry...and I miss you.

Distortion: - HM-2 On

E|---------------------------------------------------|
B|-----------0-----0---------------------------------|
G|-------0-0-0-0---0---------------------------------|
D|-0-0-0-0-0-0-0-0-0-5-5-5-5-5-5-5-5-5-5-5-5-5-5-5-5-|
A|-0-0-0-0-0-0-0-0-0-5-5-5-5-5-5-5-5-5-5-5-5-5-5-5-5-|
D|-0-0-0-0---0-0---0-4-4-4-4-4-4-4-4-6-6-6-6-6-6-6-6-|

I miss you.
I've grown taller now.
I want the police to be notified.
I'll make it up to you,
I swear, I'll make it up to you.

Closing Breakdown: - Distortion - HM-2 On with FZ-2-|
E|--------------------------------------------------| (x8)
B|--------------------------------------------------|
G|--------------------------------------------------|
D|--4--*-*---4--*-*---4--0--------------------------|
A|--4--*-*---4--*-*---4--0--------------------------|
D|--4--*-*---4--*-*---4--0--------------------------|

Natural Harmonics: - Distortion - HM-2 with FZ-2

E|-----------------------------| (x8)
B|---------------------------7-|
G|-----------------------7-7---|
D|-------------------7-7-------|
A|-----5-5---5-5-5-------------|
D|---5-----5-------4-----------|

I miss you!
I miss you!
Oh, I miss you!
I miss you!

Final Chord:

E|--- (Let Ring)
B|---
G|---
D|-0-
A|-0-
D|-0-

Tabbed by Tom West
Добавлено: 27.02.2012
Другие материалы по этой песне:

Страница создана 27.02.2012
http://primanota.ru/slint/good-morning-captain-chords.htm
Привет, Гость.
Предлагаем пройти революционный курс по гитаре.
Подарок от PrimaNota.Ru, забирай!