PrimaNota.ru - самый крупный в мире бесплатный архив песенных текстов, аккордов, табулатур и нот


Slint - Glenn - таба, бас-таба, видео

Регистрация Запомнить меня
Войти через:  Facebook Google Twitter Vk Yandex Mail.ru

Slint - Glenn - таба, бас-таба, видео

Печатать
Просмотров: 143
Glenn off of Slint's self-titled EP.  Pretty easy stuff, I guess.  Although I have
guitar pieces labled, it should be noted that the whole song pretty much melts together as
big riff, give or take a few differences.

Tuning (from low to high): EADGBe
/ = slide.  ~ = vibrado.

e-------------------------------------------------------------------|
B-------------------------------------------------------------------|
G----------------------------9----7---------------------------------|
D-------7---------9----10--------------7------5---------------------|
A--4---------8------------------------------------------------------|
E-------------------------------------------------------------------|
   riff 1

e--------------------------------------------------------------------|
B--------------------------------------------------------------------|
G-------------------------9----/--5---5------------------------------|
D---8/-7~---7~---5---6---------/6---6--------------------------------|
A---8/-7~---6~-------------------------------------------------------|
E--------------------------------------------------------------------|
   riff 1 cont.

e--------------------------------------------------------------------|
B--------------------------------------------------------------------|
G--------------------------------------------------------------------|
D---7-----7------7---7---7-7-----7------7---7---7-7-----7------------|
A-----0-0----0-8---8---8-----0-0----0-8---8---8-----0-0----5-5-5-5---|
E----------------------------------------------------------4-4-4-4---|
    riff 2

After this the bass playes an open A string palm muted, switching between what sounds
plain distortion and distortion + wah all the way down.  I know it sounds like the guitar
doing this, but if you pay attention you can not only hear the guitar still playing riff 
but you'll notice that the A note is way way too low and still retaining clear tone to
a guitar.

e----------------------------------------------------------------------|
B----------------------------------------------------------------------|
G----------------------------------------------------------------------|
D----------------------------------------------------------------------|
A----------------------------------------------------------------------|
E--5~~~/10~~~9~~~/6~~~/12~~~13~~11~~~10~/16~~~15~16~~~/13~~~/9~10/6~---|
    riff 4 (solo w/slight feedback)

---------------------------------------------------|
---------------------------------------------------|
---------------------------------------------------|
---------------------------------------------------|
---------------------------------------------------|
---~~~~/8~~~~~/10~~~~~0----------------------------|
   riff 4 cont.

the song ends with this:  G-----7---7~--------|
                          D--/6---6-----------|

Song:
Riff 1x3
riff 2x6
(bass break)
riff 2x3
riff 1x3
riff 2x a lot during solox1
ending.

any questions/comments, feel free to email me at blackantibody@hotmail.com
Добавлено: 07.07.2012
Другие материалы по этой песне:
  • Аккорды и текст

Страница создана 07.07.2012
http://primanota.ru/slint/glenn-chords.htm
Привет, Гость.
Предлагаем пройти революционный курс по гитаре.
Подарок от PrimaNota.Ru, забирай!