PrimaNota.ru - самый крупный в мире бесплатный архив песенных текстов, аккордов, табулатур и нот


Slint - Darlene - текст песни, таба, бас-таба, видео

Регистрация Запомнить меня
Войти через:  Facebook Google Twitter Vk Yandex Mail.ru

Slint - Darlene - текст песни, таба, бас-таба, видео

Печатать
Просмотров: 170
Уроки эстрадного вокала в Санкт-Петербурге
Song: Darlene
Artist: Slint
Album: Tweez
Tuning: Standard
Time Signature: 8/4 (The rhythm of the song is really weird,
I put bars separating the measures, 
but you'll have to figure out the actual rhythm. 
I'm going to also release a version of this on guitar pro soon, 
which has the actual rhythms and everything.)

~~~~~~~~~~~~~~~~~~~~~~~~~~~~~~~Bass Part~~~~~~~~~~~~~~~~~~~~~~~~~~~~~~~~~~~~~

Bass Riff I:                         Bass Riff II

G|-------------------------|         G|---0-----0-----0-----|------|
D|---0---0---0-0-3-0-5-3-5-|         D|-2---2-1---1-2---2---|------|
A|-1---1---1---------------|         A|-------------------3-|-10---|
E|-------------------------|         E|---------------------|----0-|

Bass Riff III:                       Bass Riff IV:

G|---0-----0-----0-----0---|         G|---0-----0-----|
D|-2---2-1---1-2---2-----1-|         D|-2---2-1---1-2-|
A|-------------------3-----|         A|---------------|
E|-------------------------|         E|---------------|

~~~~~~~~~~~~~~~~~~~~~~~~~~~~~~Guitar Part~~~~~~~~~~~~~~~~~~~~~~~~~~~~~~~~~~~~

Guitar Riff I:

e|-------6-------------6---------| 
B|-----9---9---------9---9---9-9-| 
G|---7-------7-----7-------7-----|
D|-6-----------6-6---------------|
A|-------------------------------|
E|-------------------------------|

Guitar Riff II:

e|-10----13----12----12----10----13-|----13----13----10----12----12----13-|
B|----11----11----11----11----11----|-11----11----11----11----11----11----|
G|----------------------------------|-------------------------------------|
D|----------------------------------|-------------------------------------|
A|----------------------------------|-------------------------------------|
E|----------------------------------|-------------------------------------|

Guitar Riff III:                     Guitar Riff IV:

e|---------------------|------|      e|-------------------------|
B|---------------------|------|      B|-------------------------|
G|---0-----0-----0-----|------|      G|---0-----0-----0-----0---|
D|-2---2-1---1-2---2---|------|      D|-2---2-1---1-2---2-----1-|
A|-------------------3-|-10---|      A|-------------------3-----|
E|---------------------|----0-|      E|-------------------------|

Guitar Riff V:

e|---------------|
B|---------------|
G|---0-----0-----|
D|-2---2-1---1-2-|
A|---------------|
E|---------------|

~~~~~~~~~~~~~~~~~~~~~~~~~~~~~~~Structure~~~~~~~~~~~~~~~~~~~~~~~~~~~~~~~~~~~~~
 
Measure|Guitar Riff|Bass Riff      
1      |           |I
2      |           |I
3      |I          |I
4      |II         |I
5      |           |I
6      |           |I
7      |           |I
8      |I          |I
9      |I          |I
10     |           |I
11     |           |I
12     |III        |II
13     |           |
14     |           |I
15     |I          |I
16     |I          |I
17     |II         |I
18     |           |I
19     |           |I
20     |           |I
21     |I          |I
22     |I          |I
23     |           |I
24     |           |I
25     |II         |I
26     |           |I
27     |III        |II
28     |           |
29     |           |I
30     |I          |I
31     |I          |I
32     |II         |I          
33     |           |I
34     |IV         |III
35     |IV         |III
36     |IV         |III
37     |IV         |III
38     |IV         |III
39     |IV         |III
40     |IV         |III
41     |IV         |III
42     |IV         |III
43     |IV         |III
44     |IV         |III
45     |V          |IV
~~~~~~~~~~~~~~~~~~~~~~~~~~~~~~~~~~~~~~~~~~~~~~~~~~~~~~~~~~~~~~~~~~~~~~~~~~~~~

I hope this is helpful
~Kai
Добавлено: 13.04.2012
Другие материалы по этой песне:

Страница создана 10.04.2012
http://primanota.ru/slint/darlene-chords.htm
Привет, Гость.
Предлагаем пройти революционный курс по гитаре.
Подарок от PrimaNota.Ru, забирай!