PrimaNota.ru - самый крупный в мире бесплатный архив песенных текстов, аккордов, табулатур и нот


Slime - Greensleeves - таба, видео

Регистрация Запомнить меня
Войти через:  Facebook Google Twitter Vk Yandex Mail.ru

Slime - Greensleeves - таба, видео

Печатать
Просмотров: 80
Авторы музыки: [traditional]
Авторы текста: [traditional]
Artist: Slime
Title:  Greensleeves
Album:  Yankees Raus!

Date: Tuesday, April 22nd, 2003

/ = Slide

That's just the intro. It's really easy to play.
Listen to the song to get the rhythm.

 

e|--------------------------|------------------------------------
h|--------------------------|------------------------------------
g|----------0--/3--1--------|--------0---------------------------
D|-----2--4------------4--0-|--2--4-----2--2--1--2--4--1---------
A|--2-----------------------|-----------------------------2------
E|--------------------------|------------------------------------

e|--------------------------|-------------------|-----------------
h|--------------------------|-------------------|-----------------
g|----------0--/3--1--------|--------0----------|-----------------
D|-----2--4------------4--0-|--2--4-----4--2--1-|-----1-----------
A|--2-----------------------|-------------------|--4-----2--------
E|--------------------------|-------------------|-----------------

     
Добавлено: 14.10.2013
Другие материалы по этой песне:
  • Аккорды и текст

Страница создана 14.10.2013
http://primanota.ru/slime/greensleeves-chords.htm
Привет, Гость.
Предлагаем пройти революционный курс по гитаре.
Подарок от PrimaNota.Ru, забирай!