PrimaNota.ru - самый крупный в мире бесплатный архив песенных текстов, аккордов, табулатур и нот


Slim Whitman - I Remember You - аккорды и текст, видео

Регистрация Запомнить меня
Войти через:  Facebook Google Twitter Vk Yandex Mail.ru

Slim Whitman - I Remember You - аккорды и текст, видео

Печатать
Просмотров: 120
Авторы музыки: Victor Schertzinger
Авторы текста: Johnny Mercer
I Remember You
Slim Whitman
-------------------------------------------------------------------------------
                          I Remember You - Slim Whitman
-------------------------------------------------------------------------------
Tabbed by: Steven Derks
Tuning: Standard (EADGBe)

Notes:
- The C and F chords are used at some points in this tab to spice things up. For
example, you can find them after "a few kisses ago" a couple of times. These chords
aren't in the original song, so you can leave them out if you want to, but I would
advice leaving these chords in because they just sound right. See for yourself. ;)
- If you have any corrections, please post them here!

Used chords:
   Bb   A    Dm  Eb5  Ebm   C    F    C5   D5   G    Gm  C#5   Ab  Bar6 Bar3
e|-1----0----1----x----6----0----1----x----x----3----3----X----4----6----3----|
B|-3----2----3----8----7----1----1----x----x----3----3----x----4----6----3----|
G|-3----2----2----8----8----0----2----5----7----4----3----6----5----6----3----|
D|-3----2----0----8----8----2----3----5----7----5----5----6----6----6----3----|
A|-1----0----x----6----6----3----3----3----5----5----5----4----6----6----3----|
E|-x----x----x----x----x----X----1----X----x----3----3----x----4----6----3----|


Intro:
      Bb     Bb
e|----1-1----1-1---------------|
B|----3-3----3-3---------------|
G|----3-3----3-3---------------|
D|----3-3----3-3---------------|
A|-1--1-1----1-1-1-----------0-| (followed by A#, see below)
E|--------1----------1---3-----|


Chorus 1:

      Bb     Bb     A      A        Bb     Bb     Dm     Dm 
e|----1-1----1-1----0-0----0-0-|----1-1----1-1----1-1----1-1-|
B|----3-3----3-3----2-2----2-2-|----3-3----3-3----3-3----3-3-|
G|----3-3----3-3----2-2----2-2-|----3-3----3-3----2-2----2-2-|
D|----3-3----3-3----2-2----2-2-|----3-3----3-3-0--0-0----0-0-|
A|-1--1-1----1-1-0--0-0----0-0-|-1--1-1----1-1--------0------|
E|--------1-------------0------|--------1--------------------|
   I      remember you-ooh   You're the one who made my dreams 

      Eb5    Eb5    Ebm    Ebm      Bb     Bb     C      F
e|------------------6-6----6-6-|----1-1----1-1----0-0----1-1-|
B|----8-8----8-8----7-7----7-7-|----3-3----3-3----1-1----1-1-|
G|----8-8----8-8----8-8----8-8-|----3-3----3-3----0-0----2-2-|
D|----8-8----8-8----8-8----8-8-|----3-3----3-3----2-2----3-3-|
A|-6--6-6----6-6-6--6-6----6-6-|-1--1-1----1-1-3--3-3----3-3-|
E|--------6-------------6------|--------1-------------1--1-1-|
   come true     a few kisses    ago


Chorus 2:

      Bb     Bb     A      A        Bb     Bb     Dm     Dm 
e|----1-1----1-1----0-0----0-0-|----1-1----1-1----1-1----1-1-|
B|----3-3----3-3----2-2----2-2-|----3-3----3-3----3-3----3-3-|
G|----3-3----3-3----2-2----2-2-|----3-3----3-3----2-2----2-2-|
D|----3-3----3-3----2-2----2-2-|----3-3----3-3-0--0-0----0-0-|
A|-1--1-1----1-1-0--0-0----0-0-|-1--1-1----1-1--------0------|
E|--------1-------------0------|--------1--------------------|
   I      remember you-ooh   You're the one who said  "I

      Eb5    Eb5    Ebm    Ebm      Bb     Bb      Bb  C5  D5
e|------------------6-6----6-6-|----1-1----1-1---------------|
B|----8-8----8-8----7-7----7-7-|----3-3----3-3-----3---5---7-|
G|----8-8----8-8----8-8----8-8-|----3-3----3-3-----3---5---7-|
D|----8-8----8-8----8-8----8-8-|----3-3----3-3-----3---5---7-|
A|-6--6-6----6-6-6--6-6----6-6-|-1--1-1----1-1-1---1---3---5-|
E|--------6-------------6------|--------1--------------------|
love you, too",      didn't cha know?


Chorus 3:
      Eb5    Eb5    D5     D5       G      G      D5     D5
e|-----------------------------|----3-3----3-3---------------|
B|----8-8----8-8----7-7----7-7-|----3-3----3-3----7-7----7-7-|
G|----8-8----8-8----7-7----7-7-|----4-4----4-4----7-7----7-7-|
D|----8-8----8-8----7-7----7-7-|----5-5----5-5----7-7----7-7-|
A|-6--6-6----6-6-5--5-5----5-5-|----5-5-5--5-5-5--5-5----5-5-|
E|--------6-------------5------|-3--3-3----3-3--------5------|
   I remember    too a  distant  bell,         and    stars that

      G      G      Gm     C        F      F   
e|----3-3----3-3----3-3----0-0-|----1-1----1-1---------------|
B|----3-3----3-3----3-3----1-1-|----1-1----1-1---------------|
G|----4-4----4-4----3-3----0-0-|----2-2----2-2---------------|
D|----5-5----5-5----5-5----2-2-|----3-3----3-3---------------|
A|----5-5-5--5-5----5-5-3--3-3-|----3-3----3-3-------------0-|
E|-3--3-3----3-3-3--3-3--------|-1--1-1-1--1-1-1---1---3-----|
   fell like the rain out of the blue-ooh-ooh-ooh-hoo-hoo-hoo


Chorus 4:

      Bb     Bb     A      A        Bb     Bb     Dm     Dm 
e|----1-1----1-1----0-0----0-0-|----1-1----1-1----1-1----1-1-|
B|----3-3----3-3----2-2----2-2-|----3-3----3-3----3-3----3-3-|
G|----3-3----3-3----2-2----2-2-|----3-3----3-3----2-2----2-2-|
D|----3-3----3-3----2-2----2-2-|----3-3----3-3-0--0-0----0-0-|
A|-1--1-1----1-1-0--0-0----0-0-|-1--1-1----1-1--------0------|
E|--------1-------------0------|--------1--------------------|
   When my life is through          And the angels ask me to

      Eb5    Eb5    Ebm    Ebm      Bb     Bb     C      F
e|------------------6-6----6-6-|----1-1----1-1----0-0----1-1-|
B|----8-8----8-8----7-7----7-7-|----3-3----3-3----1-1----1-1-|
G|----8-8----8-8----8-8----8-8-|----3-3----3-3----0-0----2-2-|
D|----8-8----8-8----8-8----8-8-|----3-3----3-3----2-2----3-3-|
A|-6--6-6----6-6-6--6-6----6-6-|-1--1-1----1-1-3--3-3----3-3-|
E|--------6-------------6------|--------1-------------1--1-1-|
   recall               the thrill of it all,     Then I will

      Bb     Bar3   C5     F        Bb     Bb      Bb  C5  D5
e|----1-1------------------1-1-|----1-1----1-1---------------|
B|----3-3----3-3----5-5----1-1-|----3-3----3-3-----3---5---7-|
G|----3-3----3-3----5-5----2-2-|----3-3----3-3-----3---5---7-|
D|----3-3----3-3----5-5----3-3-|----3-3----3-3-----3---5---7-|
A|-1--1-1--------3---------3-3-|-1--1-1----1-1-1---1---3---5-|
E|--------3-------------1--1-1-|--------1--------------------|
tell them I  re- mem-   ber      you-oooooooh

      Eb5    Eb5    D5     D5       G      G      D5     D5
e|-----------------------------|----3-3----3-3---------------|
B|----8-8----8-8----7-7----7-7-|----3-3----3-3----7-7----7-7-|
G|----8-8----8-8----7-7----7-7-|----4-4----4-4----7-7----7-7-|
D|----8-8----8-8----7-7----7-7-|----5-5----5-5----7-7----7-7-|
A|-6--6-6----6-6-5--5-5----5-5-|----5-5-5--5-5-5--5-5----5-5-|
E|--------6-------------5------|-3--3-3----3-3--------5------|
   I remember    too a  distant  bell,         and    stars that

      G      G      Gm     C        F      F   
e|----3-3----3-3----3-3----0-0-|----1-1----1-1---------------|
B|----3-3----3-3----3-3----1-1-|----1-1----1-1---------------|
G|----4-4----4-4----3-3----0-0-|----2-2----2-2---------------|
D|----5-5----5-5----5-5----2-2-|----3-3----3-3---------------|
A|----5-5-5--5-5----5-5-3--3-3-|----3-3----3-3-------------0-|
E|-3--3-3----3-3-3--3-3--------|-1--1-1-1--1-1-1---1---3-----|
   fell like the rain out of the blue-ooh-ooh-ooh-hoo-hoo-hoo


Chorus 5 (outro):

      Bb     Bb     A      A        Bb     Bb     Dm     Dm 
e|----1-1----1-1----0-0----0-0-|----1-1----1-1----1-1----1-1-|
B|----3-3----3-3----2-2----2-2-|----3-3----3-3----3-3----3-3-|
G|----3-3----3-3----2-2----2-2-|----3-3----3-3----2-2----2-2-|
D|----3-3----3-3----2-2----2-2-|----3-3----3-3-0--0-0----0-0-|
A|-1--1-1----1-1-0--0-0----0-0-|-1--1-1----1-1--------0------|
E|--------1-------------0------|--------1--------------------|
   When my life is through          And the angels ask me to

      Eb5    Eb5    Ebm    Ebm      Bb     Bb     C      F
e|------------------6-6----6-6-|----1-1----1-1----0-0----1-1-|
B|----8-8----8-8----7-7----7-7-|----3-3----3-3----1-1----1-1-|
G|----8-8----8-8----8-8----8-8-|----3-3----3-3----0-0----2-2-|
D|----8-8----8-8----8-8----8-8-|----3-3----3-3----2-2----3-3-|
A|-6--6-6----6-6-6--6-6----6-6-|-1--1-1----1-1-3--3-3----3-3-|
E|--------6-------------6------|--------1-------------1--1-1-|
   recall               the thrill of it all,     Then I will

      Bb     Bar3   C5     F        C#5   Bar6    Eb5    Ab
e|----1-1------------------1-1-|-------------------------4-4-|
B|----3-3----3-3----5-5----1-1-|----6-6---6-6-----8-8----4-4-|
G|----3-3----3-3----5-5----2-2-|----6-6---6-6-----8-8----5-5-|
D|----3-3----3-3----5-5----3-3-|----6-6---6-6-----8-8----6-6-|
A|-1--1-1--------3---------3-3-|-4--4-4--------6--6-6----6-6-|
E|--------3-------------1--1-1-|--------6-------------4--4-4-|
tell them I  re- mem-   ber tell them I re-  mem-   ber,

      Ab     Ab     A      A        Bb    Bb         Bb (let ring) 
e|----4-4----4-4----5-5----5-5-|----1-1---1-1--------1-------|
B|----4-4----4-4----5-5----5-5-|----3-3---3-3--------3-------|
G|----5-5----5-5----6-6----6-6-|----3-3---3-3--------3-------|
D|----6-6----6-6----7-7----7-7-|----3-3---3-3--------3-------|
A|----6-6----6-6----7-7----7-7-|-1--1-1---1-1--1-----1-------|
E|-4--4-4-4--4-4-5--5-5-5--5-5-|--------1---------1----------|
tell them I  re- mem-   ber      you-oooooooooohoooooooooooh

Enjoy!

And remember: if you have any corrections, please post them here!

~To Ultimate-Guitar:~
Here's some links with info about Slim Whitman to prove he's an artist:
- Wikipedia: http://en.wikipedia.org/wiki/Slim_Whitman
- Last.fm: http://www.last.fm/music/Slim+Whitman
- Google: http://www.google.com/search?q=Slim+Whitman
Добавлено: 12.07.2012
Другие материалы по этой песне:
  • Аккорды и текст

Страница создана 12.07.2012
http://primanota.ru/slim-whitman/i-remember-you-chords.htm
Привет, Гость.
Предлагаем пройти революционный курс по гитаре.
Подарок от PrimaNota.Ru, забирай!