PrimaNota.ru - самый крупный в мире бесплатный архив песенных текстов, аккордов, табулатур и нот


Slightly Stoopid - Wicked Rebel - текст песни, таба, видео

Регистрация Запомнить меня
Войти через:  Facebook Google Twitter Vk Yandex Mail.ru

Slightly Stoopid - Wicked Rebel - текст песни, таба, видео

Печатать
Просмотров: 107
Уроки эстрадного вокала в Санкт-Петербурге
-------------------------------------------------------------------------------
                             Wicked Rebel - Slightly Stoopid
-------------------------------------------------------------------------------
Tabbed by: Evergreen


Bass
e|---------------------------------------------------------------------------|
B|---------------------------------------------------------------------------|
G|---------------------------------------------------------------------------|
D|-------6---------44444-----------------------------------------------------|
A|-----------4h6-------------------------------------------------------------|
E|--4------------------------------------------------------------------------|

Piano
e|-----------------------------------------------------------------------------|
B|---9---9----7-7-7-7-----9----9------7-7-7/9----------------------------------|
G|----8---8----------------8----8-8--------------------------------------------|
D|-----------------------------------------------------------------------------|
A|-----------------------------------------------------------------------------|
E|-----------------------------------------------------------------------------|

Chords
Ab Gb

Some licks at the end of the song (with delay)

e|---------11--------------11h13p11------------------------------------------|
B|--11/13-----------11/13----------------------------------------------------|
G|---------------------------------------------------------------------------|
D|---------------------------------------------------------------------------|
A|---------------------------------------------------------------------------|
E|---------------------------------------------------------------------------|

e|----------11------16h18p16-------------------------------------------------|
B|---11/13--------------------18---------------------------------------------|
G|---------------------------------------------------------------------------|
D|---------------------------------------------------------------------------|
A|---------------------------------------------------------------------------|
E|---------------------------------------------------------------------------|

Im too lazy to put more licks up. be creative or figure them out yourself
Peace

| /  slide up
| \  slide down
| h  hammer-on
| p  pull-off
| ~  vibrato
| +  harmonic
| x  Mute note
===============================================================================
Добавлено: 08.05.2012
Другие материалы по этой песне:
  • Аккорды и текст

Страница создана 08.05.2012
http://primanota.ru/slightly-stoopid/wicked-rebel-chords.htm
Привет, Гость.
Предлагаем пройти революционный курс по гитаре.
Подарок от PrimaNota.Ru, забирай!