PrimaNota.ru - самый крупный в мире бесплатный архив песенных текстов, аккордов, табулатур и нот


Slightly Stoopid - Waiting - текст песни, таба, видео

Регистрация Запомнить меня
Войти через:  Facebook Google Twitter Vk Yandex Mail.ru

Slightly Stoopid - Waiting - текст песни, таба, видео

Печатать
Просмотров: 88
-------------------------------------------------------------------------------
                             WAITING - Slightly Stoopid
-------------------------------------------------------------------------------
Tabbed by: rootdown42
Email: rootdown42@yahoo.com

Tuning: Standard

Intro riff
e|-5-3-------------------------------------------------------------------------|
B|-----3-/-4---3-4-3-----------------------------------------------------------|
G|-----------5-------5--0--2----0--2-------------------------------------------|
D|-----------------------------------------------------------------------------|
A|-----------------------------------------------------------------------------|
E|-----------------------------------------------------------------------------|

Verse (strum on upbeat)
e|-3-3------5-5-5-5----------------------------------------------------------|
B|-4-4--7-7-5-5-5-5----------------------------------------------------------|
G|-5-5--7-7-6-6-6-6----------------------------------------------------------|
D|------7-7------------------------------------------------------------------|
A|---------------------------------------------------------------------------|
E|---------------------------------------------------------------------------|

chorus
e|-3-----2-----5--------5-----5----------------------------------------------|
B|-3-----3-----5-----5h7---5h7---5-------------------------------------------|
G|-4-----2-----6-------------------------------------------------------------|
D|-5-----0-----7-------------------------------------------------------------|
A|-5-----------7-------------------------------------------------------------|
E|-3-----------5-------------------------------------------------------------|

e|---------------------------------------------------------------------------|
B|---------------------------------------------------------------------------|
G|---------------------------------------------------------------------------|
D|----7----7-----7-----7-----7-9-7-------------------------------------------|
A|-7h9—-7h9---7h9---7h9---7h9------------------------------------------------|
E|---------------------------------------------------------------------------|

Riff during outro
e|-------------------------5-3-------------------------------------------------|
B|-----------------------------3-/-4---3-4-3-----------------------------------|
G|-----------------------------------5-------5--0--2---0--2--------------------|
D|-----------------------------------------------------------------------------|
A|-----------------------------------------------------------------------------|
E|--3h5-3h5----3h5-3h5---------------------------------------------------------|


| /  slide up
| \  slide down
| h  hammer-on
| p  pull-off
| ~  vibrato
| +  harmonic
| x  Mute note
===============================================================================
Добавлено: 17.03.2012
Другие материалы по этой песне:
  • Аккорды и текст

Страница создана 17.03.2012
http://primanota.ru/slightly-stoopid/waiting-chords.htm
Привет, Гость.
Предлагаем пройти революционный курс по гитаре.
Подарок от PrimaNota.Ru, забирай!