PrimaNota.ru - самый крупный в мире бесплатный архив песенных текстов, аккордов, табулатур и нот


Slightly Stoopid - This Joint - аккорды и текст, таба, бас-таба, видео

Регистрация Запомнить меня
Войти через:  Facebook Google Twitter Vk Yandex Mail.ru

Slightly Stoopid - This Joint - аккорды и текст, таба, бас-таба, видео

Печатать
Просмотров: 299
Уроки эстрадного вокала в Санкт-Петербурге
This Joint
Slightly Stoopid
Intro
G|-----------888888-----------6-444444-|
D|-6/8-4/6----------4/6-2/4------------|         x2
A|---------6----------------4----------| 
E|-------------------------------------|

Other
G|-----------6-4----------------|
D|-8-6---8-9-----4-------999999-|
A|-----6-----------4-7-7--------|
E|------------------------------|

just do the first one 2 times and then the 2nd one once and repeat.
Добавлено: 25.09.2014
Другие материалы по этой песне:
  • Аккорды и текст

Страница создана 26.02.2012
http://primanota.ru/slightly-stoopid/this-joint-chords.htm
Привет, Гость.
Предлагаем пройти революционный курс по гитаре.
Подарок от PrimaNota.Ru, забирай!