PrimaNota.ru - самый крупный в мире бесплатный архив песенных текстов, аккордов, табулатур и нот


Slightly Stoopid - Officer - текст песни, таба, бас-таба, видео

Регистрация Запомнить меня
Войти через:  Facebook Google Twitter Vk Yandex Mail.ru

Slightly Stoopid - Officer - текст песни, таба, бас-таба, видео

Печатать
Просмотров: 271
Intro

e--------0h4—(x4)------4h5-(x4)-----5h7-(x4)------ 4h5-(x4)-|
B-----------------------------------------------------------|
G-----------------------------------------------------------|   (x2)
D-----------------------------------------------------------|
A-----------------------------------------------------------|
E-----------------------------------------------------------|

Verse

e-------7---------5---------7-------------------------------|
B-------9---------5---------7-------------------------------|
G-------9---------6---------8-------------------------------|
D-------9---------7---------9-------------------------------|
A-------7---------7---------9-------------------------------|
E-------7---------5---------7-------------------------------|

Listen to the song to figure out the strumming pattern for the verse.  That's pretty much it.
Добавлено: 23.07.2012
Другие материалы по этой песне:
  • Аккорды и текст

Страница создана 13.03.2012
http://primanota.ru/slightly-stoopid/officer-chords.htm
Привет, Гость.
Предлагаем пройти революционный курс по гитаре.
Подарок от PrimaNota.Ru, забирай!