PrimaNota.ru - самый крупный в мире бесплатный архив песенных текстов, аккордов, табулатур и нот


Slightly Stoopid - Ocean - текст песни, таба, видео

Регистрация Запомнить меня
Войти через:  Facebook Google Twitter Vk Yandex Mail.ru

Slightly Stoopid - Ocean - текст песни, таба, видео

Печатать
Просмотров: 137
Уроки эстрадного вокала в Санкт-Петербурге
-------------------------------------------------------------------------------
                             Ocean – Slightly Stoopid
-------------------------------------------------------------------------------
Tabbed by: Evergreen
Email:

Tuning: Standard

Intro
Guitar with Delay and Reverb

e|-9--9--9-------------------------------------------------------------------|
B|----------12--12--10----------------10-------------------------------------|
G|-----------------------11---9-9/-11-----11\-9------------------------------|
D|---------------------------------------------------------------------------|
A|---------------------------------------------------------------------------|
E|---------------------------------------------------------------------------|

e|-9--9--9------------------------------------------------------------------------|
B|----------12--12--10--------10-10/-12-\10---------------------------------------|
G|-----------------------11-------------------------------------------------------|
D|--------------------------------------------------------------------------------|
A|--------------------------------------------------------------------------------|
E|--------------------------------------------------------------------------------|

Intro
Acoustic Guitar

e|--5-------------------------------------------------------------------------|
B|--5---------------5-----5---------------------------------------------------|
G|--6------------------6-----6------------------------------------------------|
D|--7-------------------------------------------------------------------------|
A|--7-------------------------------------------------------------------------|
E|--5-------------------------------------------------------------------------|


e|--5-------------------------------------------------------------------------|
B|--7----------------7-----7--------------------------------------------------|
G|--7-------------------7-----7-----------------------------------------------|
D|--7-------------------------------------------------------------------------|
A|--5-------------------------------------------------------------------------|
E|--5-------------------------------------------------------------------------|

0:23
Guitar

e|-------5--------------------------------------------------------------------|
B|-------5-----5h7--5-----5---------7-----------------------------------------|
G|-------6-------------6------------7----9--9--7------------------------------|
D|--7----7----------------------7---7-------------9--7------------------------|
A|----------------------------------------------------------------------------|
E|----------------------------------------------------------------------------|

0:23
Harmonica


e|------------------------------------------------------------------------------|
B|--12~~~~~~~~~-12-12-12-12-12-12-12-10~----12--12--12--10--10------------------|
G|------------------------------------------------------------------------------|
D|------------------------------------------------------------------------------|
A|------------------------------------------------------------------------------|
E|------------------------------------------------------------------------------|

e|-----------------------------------------------------------------------------|
B|--10/12-10/12-10/12-10~--14--14--12------10--12--12--12--12--12--10----------|
G|-----------------------------------------------------------------------------|
D|-----------------------------------------------------------------------------|
A|-----------------------------------------------------------------------------|
E|-----------------------------------------------------------------------------|

0:46
Saxophone

e|-----------------------------------------------------------------------------|
B|--12--------12--12--9--------------------------------------------------------|
G|------------------------11--11---9----------9------9-------------------------|
D|----------------------------------------11-----11-----11---7--7h9—7----------|
A|-----------------------------------------------------------------------------|
E|-----------------------------------------------------------------------------|

e|-----------------------------------------------------------------------------|
B|-----------------------------------------------------------------------------|
G|--4/7-7-6--6--7/9-9-7--7--9/11--9--------------------------------------------|
D|-----------------------------------------------------------------------------|
A|-----------------------------------------------------------------------------|
E|-----------------------------------------------------------------------------|

1:35
Guitar with Delay

e|------------------------------------------------------------------------------|
B|------------------------------------------------------------------------------|
G|----(2)/----------------------------------------------------------------------|
D|------tremolo-----------------------------------------------------------------|
A|------------------------------------------------------------------------------|
E|------------------------------------------------------------------------------|


2:40
Guitar

e|---------------------------------------------------------------------------|
B|---------------------------------------------------------------------------|
G|--4b6b4-----------2----------4b6b4------------2----------------------------|
D|---------2-2-4-4--------------------2-2-4-4--------------------------------|
A|---------------------------------------------------------------------------|
E|---------------------------------------------------------------------------|

e|-----------------------------------------------------------------------------|
B|-----------------------------------------------------------------------------|
G|--4b6b4-----------2----------4/9-9--9--9-------------------------------------|
D|---------2-2-4-4--------------------------11p9/7-----------------------------|
A|-----------------------------------------------------------------------------|
E|-----------------------------------------------------------------------------|

Ending

e|-----------------------------------------------------------------------------|
B|-----------------------------------------------------------------------------|
G|--4b6b4-----------2----------4/9-9--9--9-------------------------------------|
D|---------2-2-4-4--------------------------11p9/7--7~-------------------------|
A|-----------------------------------------------------------------------------|
E|-----------------------------------------------------------------------------|

I don't know the rest of the Saxophone solo right now. I will post it when
 I figure it out. Fell free to post the rest if you know it.

  b  bend
| /  slide up
| \  slide down
| h  hammer-on
| p  pull-off
| ~  vibrato
| +  harmonic
| (X)Mute note
===============================================================================
Добавлено: 05.06.2012
Другие материалы по этой песне:
  • Аккорды и текст

Страница создана 05.06.2012
http://primanota.ru/slightly-stoopid/ocean-chords.htm
Привет, Гость.
Предлагаем пройти революционный курс по гитаре.
Подарок от PrimaNota.Ru, забирай!