PrimaNota.ru - самый крупный в мире бесплатный архив песенных текстов, аккордов, табулатур и нот


Slightly Stoopid - London Dub - бас-таба, видео

Регистрация Запомнить меня
Войти через:  Facebook Google Twitter Vk Yandex Mail.ru

Slightly Stoopid - London Dub - бас-таба, видео

Печатать
Просмотров: 60
Slightly Stoopid London Dub Bass Tab

1st Riff
G ------------------------------------------------------|
D --44444---------------------44444-------444-----------|
A 2--------------------------2--------------------------|
E -----------3333-222-----------------333---------------|

2nd Riff
G --------------------------------------------------------|
D ---------4----4-7-4-----------------4-----4-777---------|
A 22-55-------5---------5-----22-55--------5--------------|
E --------------------------------------------------------|

3rd Riff
G -------------------------------------------------------------|
D 5---5---4----------------------------------------------------|
A ---------------2---5-/-7--7--9--9/-----------2-------2-------|
E --5---5-----5---------------------------3--2----3--2---------|
Добавлено: 20.11.2013
Другие материалы по этой песне:
  • Аккорды и текст

Страница создана 20.11.2013
http://primanota.ru/slightly-stoopid/london-dub-chords.htm
Привет, Гость.
Предлагаем пройти революционный курс по гитаре.
Подарок от PrimaNota.Ru, забирай!