PrimaNota.ru - самый крупный в мире бесплатный архив песенных текстов, аккордов, табулатур и нот


Slightly Stoopid - Live Direct Acoustic Roots - таба, видео

Регистрация Запомнить меня
Войти через:  Facebook Google Twitter Vk Yandex Mail.ru

Slightly Stoopid - Live Direct Acoustic Roots - таба, видео

Печатать
Просмотров: 43
1. Cool Down

e]  [----14-------14----------] [-------------------------]
B]  [-------15-------15----15-] [----12-------12----------]
G]  [-14-------14-------14----] [-------12-------12----12-]
D]  [-0-----------------------] [-12-------12-------12----]
A]  [-------------------------] [-10----------------------]
E]  [-------------------------] [-------------------------]

e]  [-------------------------] [-------------------------]
B]  [----14-------14----------] [----12-------12----------]
G]  [-------14-------14----14-] [-------12-------12----12-]
D]  [-14-------14-------14----] [-12-------12-------12----]
A]  [-12----------------------] [-10----------------------]
E]  [-------------------------] [-------------------------]

e]  [----14-------14----------] [-------------------------]
B]  [-------15-------15----15-] [----12-------12----------]
G]  [-14-------14-------14----] [-------12-------12----12-]
D]  [-0-----------------------] [-12-------12-------12----]
A]  [-------------------------] [-10----------------------]
E]  [-------------------------] [-------------------------]

e]  [-------------------------] [----------]
B]  [----14-------14----------] [--12--14--]
G]  [-------14-------14----14-] [--12--14--]
D]  [-14-------14-------14----] [--12--14--]
A]  [-12----------------------] [--10--12--]
E]  [-------------------------] [----------]

Kyle plays this part (Bass Line)

e]  [--------------------------------------------------]
B]  [--------------------------------------------------]
G]  [--------------------------------------------------]
D]  [-----444-----------55555-5-----7777-7-----55555-5-]
A]  [-5-5-----7-5-7----------5----------7-----------5--]
E]  [---------------3-3---------5-5--------3-3---------]

Variation (When they start singing)

e]  [-------------------------------------------------------]
B]  [-------------------------------------------------------]
G]  [-------------------------------------------------------]
D]  [-----444-----------5555-5------444---------------------]
A]  [-5-5-----7-5-7---------5---5-5-----7-5-7---------------]
E]  [---------------3-3-----------------------0-2-2-3-3-4-4-]

Chords:

       D        G        A
e]  [-----]  [--3--]  [--5--]
B]  [--7--]  [--3--]  [--5--]
G]  [--7--]  [--4--]  [--6--]
D]  [--7--]  [--5--]  [--7--]
A]  [--5--]  [--5--]  [--7--]
E]  [-----]  [--3--]  [--5--]

2. Fire Shot

e|--------------------------------------------------------||-------------------|
B|-------------------------------------------------------o||-------------------|
G|--------9---------9------------------9---------9----11--||-------------------|
D|-9-9-11---11-9-11---11-9------9-9-11---11-9-11---11-----||-------------------|
A|-------------------------------------------------------o||--10\--------------|
E|--------------------------------------------------------||--------12\--------|
 Guitar Two                              \-Slide down to the bottom of the neck
e|--------------------------------||------------------------------------------||
B|-------------------------------o||-----------------------------------------o||
G|--------------------------------||------------------------------------------||
D|-2-2------------------1---1H2---||------------------------------------------||
A|------------2-2-2-2-2---2------o||-----------7-7------------------6---6H7--o||
E|-----0-0------------------------||---------------0-0----7-7-7-7-7---7-------||
                          H-Hammer
^^
From Adam (Blackspider91@cox.net)

And here is the third rhythm part played by Guitar One later in the song over and over.
to the song to get the rhythm.

e|--7--7---7--7-----------------------||
B|--9--9---7--7----------------------o||
G|--9--9---8--8-----------------------||
D|--9--9---9--9-----------------------||
A|--7--7---9--9----------------------o||
E|---------7--7-----------------------||

Then Guitar Two goes to:
Repeated
e|------------------------------------||
B|-----------------------------------o||
G|------------------------------------||
D|-2-2--------------------------------||
A|------2-2--0-0--2-2----------------o||
E|------------------------------------||
And sometimes something like
e|------------------------------------||
B|-----------------------------------o||
G|------------------------------------||
D|-2-2--------------------------------||
A|------2-2--0h2-0-0--2-2------------o||
E|------------------------------------||
Or
e|------------------------------------------||
B|-----------------------------------------o||
G|------------------------------------------||
D|-2-2----------------------------0-2-4-----||
A|------2-2--0h2-0-0--2-2-2h4p2-4----------o||
E|------------------------------------------||

3. Devils Door

guitar 1
e-----5-----5-----|
B-----5-----5-----|
G-----5-----5-----|
D-----5-----4-----|
A-----7-----5-----|
E-----5-----X-----|

guitar 2 plays  while guitar 1 plays the chords

e----------------------------------------------------------|
B----------------------------------------------------------|
G----------------------------------------------------------|
D----------------------------------------------------------|
A-------5--3--------5-----3--------5--3-----5--------------|
E-----5--------3/5-----5--------2----------2-2---2---3---4-|


e----------------------------------------------------------|
B----------------------------------------------------------|
G----------------------------------------------------------|
D------------------------------------------4--4--5--6--7---|
A-------5--3--------5-----3--------5--3--------------------|
E-----5-------3/5-----5--------2--------2------------------|

4. Sensimilla

-intro-

guitar 1
--------------------------------------------------------------------------|
--------------------------------------------------------------------------|
--------------------------------------------------------------------------|
--------------------------------------------------------------------------|
-0-0-4-2-0---------2-0-2-2------------------------------------------------|
------------4-2-0---------------------------------------------------------|

guitar 2
--------------------------------------------------------------------------|
--------------------------------------------------------------------------|
-----6-4-------------4-2-4-4----------------------------------------------|
-7-7-----7-6-4--2-2-------------------------------------------------------|
--------------------------------------------------------------------------|
--------------------------------------------------------------------------|

-verse-
"you its better to smoke that shit....."

guitar 1
--------------------------------------------------------------------------|
--------------------------------------------------------------------------|
--------------------------------------------------------------------------|
--------------------------------------------------------------------------|
-0-0-0-4-2-0---------2-0-2-2----------------------------------------------|
--------------4-2-0-------------------------------------------------------|

guitar 2
---------------------------------------------------7----------------------|
---------------------------------------------------8----------------------|
---------------------------------------------------9----------------------|
---------------------------------------------------9----------------------|
---------------------------------------------------7----------------------|
---------------------------------------------------x----------------------|

5. Souled

Verse: G, G7, C, C7

Chorus: Em, C, D, G, G7, C, C7, G, G7, C, C7

6. I Couldn't Get High

-|----------------------------------------------------------------------------|
-|--5------------5------x-x-x-----5----5---------5------x-x-x-----------------|
-|--5h6----------5h6----x-x-x-----5h6--5-5t6-----5h6----x-x-x-----------------|
-|-----7--5-7-------7---x-x-x--------7--------------7---x-x-x-----------------|
-|----------------------------------------------------------------------------|
-|----------------------------------------------------------------------------|
 RIFF1                                  tap w/middle finger

-|------------------5---------------------------------------------------------|
-|--5------------7--5--7------------------------------------------------------|
-|--5h6----------7--6--7----7p5---5-------------------------------------------|
-|-----7--5-7----7--7--7--------7---7-5h7-------------------------------------|
-|---------------5--7--5------------------------------------------------------|
-|------------------5---------------------------------------------------------|
 RIFF2           D  A  D(let ring for a sec)

-|-----------------------|--------------5-------------------------------------|
-|--5-----x---5----------|-----------7--5--7----------------------------------|
-|--5h6---x---5h6--------|-x3--------7--6--7---7p5---5------------------------|
-|-----7--x-------7-5-7--|-----------7--7--7-------7---7-5h7------------------|
-|-----------------------|-----------5--7--5----------------------------------|
-|-----------------------|--------------5-------------------------------------|
 RIFF3  Singing starts here..."I've got new sunglasses..."

-|----------------------------------------------------------------------------|
-|----------------------------------------------------------------------------|
-|---5---------5--8-7---------5-----5-----------------------------------------|
-|-----7--5--7--------------7---7-5---7-5-5h7---5t7---------------------------|
-|-----------------------------------------------------7-6-5-0-3--------------|
-|----------------------------------------------------------------------------|
                                                tap

-|----------------------------------------------------------------------------|
-|--5------------7--5-7-5---5--------7-5----5--------7-5---5---7---5----------|
-|--6--5-5-------7--5-7-5---6--5-5---7-5----6--5-5---7-5---6---7---6----------|
-|--7--5-5-------7--5-7-5---7--5-5---7-5----7--5-5---7-5---7---7---7----------|
-|--7--5-5-------5--5-5-5---7--5-5---5-5----7--5-5---5-5---7---5---7----------|
-|--5--5-5------------------5--5-5----------5--5-5---------5-------5----------|
 RIFF 4 Listen to song for the strumming pattern.

-|----------------------------------------------------------------------------|
-|------------------------------5---7-----------------------------------------|
-|------------------------------6---7-----------------------------------------|
-|---7p5------------------------7---7-----------------------------------------|
-|-------7-6-5-0-3--------------7---5-----------------------------------------|
-|-----------------0-2-0-3-4-0--5---------------------------------------------|
                              " I went to this party..."

-|------------------------------------------------|---------------------------|
-|-7---7---7---7-7-7-7-5-----7---7---7---9-9-9-9--|----5---7------------------|
-|-7---7---7---7-7-7-7-5-----7---7---7---9-9-9-9--|----6---7------------------|
-|-7---7---7---7-7-7-7-5-----7---7---7---9-9-9-9--|----7---7------------------|
-|-5---5---5---5-5-5-5-5-----5---5---5---7-7-7-7--|----7---5------------------|
-|------------------------------------------------|----5----------------------|
  "I grabbed my bottle...."                        "I couldn't get high..."

-|----------------------------------------------------------------------------|
-|----------------------------------------------------------------------------|
-|---------------------------------------7p5----------------------------------|
-|-555555p4--------------555555p4--4-5-7-----7----555555p4--------------------|
-|---------5-3-5-3-5-3-----------5------------------------5-3-5-3-5-3---------|
-|----------------------------------------------------------------------------|
   solo...

-|-----------------------------|----------------------------------------------|
-|-------------------7p5-------|----------------------------------------------|
-|-------------------7p5--5----|----------------------------------------------|
-|---555555p4--4-5-7-----7-7---|----------------------------------------------|
-|-----------5-----------------|----------------------------------------------|
-|-----------------------------|----------------------------------------------|

7. Nico's

   A7             D7             e7
e|--5-5-5---5-5----5-5-5---5------7-----|
B|--5-5-5---5-5----5-5-5h7-7------9-----|
G|--5-5-5h6-6-6----5-5-5---5------7-----|
D|--5-5-5---5-5----5-5-5h7-7------9-----|
A|--5-5-5h7-7-7----5-5-5---5------7-----|
E|--5-5-5---5-5-------------------------|

8. Mellow Mood

e|------------------------------------------------3---|
B|------------------------------------------------3---|
G|----------0-------------7----------0------------0---|
D|----------0H2--------2>4--------0H2-----2>4-----0---|
A|-2--22-2--3---22--2--3>5--22-2--3----2--3>5--2--2---|
E|-3--33-3------33--3-------33-3-------3-------3--3---|

9. Cally-Man

Chords:

G  Am  F  C

INTRO/VERSE/CHORUS


1st Guitar:

    G             Am             F          C
e|------3-3-----------------------1---1-1----0----------------|
B|------3-3-------1---1-3p1-1-1-1-1---1-1----1---1-1---1------|
G|------0-0-0-0---0h2-2-2---2-2-2-2---2-2----0---0-0-0-0------|
D|----0-----0-0---0h2-2-2---2-2-2-3---3-3----2---2-2-2-2------|
A|--2-2---------------0-----------3---3-3----3---3-3-3-3------|
E|--3-3---------------------------1---1-1----0-------0--------|

(only at the end of the intro/chorus)
|----1---1-1----0----------------|
|----1---1-1----1---1-1---1------|
|----2---2-2----0---0-0-0-0------|
|----3---3-3----2---2-2-2-2------|
|----3---3-3----3---3-3-3-3------|
|----1---1-1----0-------0--------|

2nd Guitar:

(This is the base arpeggio)

    G         Am        F      C
e|---3--3--3---0--0--0---1--1-------0--0---------------------------------------------|
B|----3--3------1--1------1----------1--1--------------------------------------------|
G|-----0--0------2--2------2----------0--0-------------------------------------------|
D|------------2----------------2-----------------------------------------------------|
A|------------0---------3------3-----------------------------------------------------|
E|--3-------------------1------------------------------------------------------------|

(can also be...)

    G            Am         F       C
e|---3-----3/5--3/5----0--0--0----1--1-------0--0-------------------------------------|
B|----3----3/5--3/5-----1--1-------1----------1--1------------------------------------|
G|-----0-----------------2--2-------2----------0--0-----------------------------------|
D|------------------2-------------------2---------------------------------------------|
A|------------------0----------3--------3---------------------------------------------|
E|--3--------------------------1------------------------------------------------------|


(OR)

    G         Am        F      C
e|---3--3--3---0--0--0---1--1--------------------------------------------------------|
B|----3--3------1--1------1--------1h3p1---------------------------------------------|
G|-----0--0------2--2------2---------------------------------------------------------|
D|------------2----------------2---------2---0h2p0-----------------------------------|
A|------------0---------3------3-----------------------------------------------------|
E|--3-------------------1------------------------------------------------------------|

VERSE: 1st and 2nd Guitar (above)
G                    Am
And some man live his life
F                 C
For profits alone
G              Am
That very same man
F                    C
He lives his life all alone

BRIDGE

1st Guitar:
(you can play it higher no prob)
e|--/3-----/5-0----1--0h1p0-0h1-3-1p0----------------------------------------|
B|-----3-1------1----1-------------------------------------------------------|
G|---------------------------------------------------------------------------|
D|---------------------------------------------------------------------------|
A|---------------------------------------------------------------------------|
E|---------------------------------------------------------------------------|

2nd Guitar: (arpeggio)


CHORUS: 1st and 2nd Guitar
G               Am
Hey mister collie man
F				 C
Why don't you come round no more
G	      Am
Hey mister collie collie man
F			       C
Don't you hear me troubled call
G	     Am
Hey mister collie man
F		          C
Look i didn't come to disturb
G		  Am
You best not be come 'round here
F			        C
Unless you've got me sensi herb

10. Too Little Too Late

Intro: D-C-B-A-C D-C-B-A

Main Chords: G-C-G-D


Chorus:
                   D                     C           G
D-C-B-A

"you better come on girl and give it to me now"

Variation: F-Bb-F-C-F-Bb (8/8 measure) then C-Bb (4/4/ measure)

Punk Part: G-C-A-D

Punk Variation: G-C-C-D-D

Outro:


e----------------------------------

B----------------------------------

G----------------------------------

D-5---5-3--------------------------

A---5-----5-3-----------5-3---3-5--

E-------------5-3-5-5-5-----5------

11. If This World Were Mine

1)--------------------------------------------------------------------------|
2)--------------------------------------------------------------------------|
3)--------------------------------------------------------------------------|
4)----------------------6-5---6-5-----------------------6-5---6-5-----------|
5)------6-5---6-5---3-3-----3-----3-----6-5---6-5---3-3-----3-----3---------|
6)--3-3-----3-----3-----------------3-3-----3-----3-------------------------|

E|----3-----|     E|----3----|
B|----3-----|     B|----4----|
G|----3-----|     G|----5----|
D|----5-----|     D|----5----|
A|----5-----|     A|----3----|
E|----3-----|     E|---------|

12. Sun Is Shining

Intro:

e|--14---9h10p9----12h13p12--7h8p7---9h10p9---7---4/5----|
B|--15---10--------13--------8-------10-------8---5/6----|
G|--14---9---------12--------7-------9--------7---4/5----|
D|-------------------------------------------------------|
A|--------------(note: when playing this, hit the--------|
E|--------------whole chord as you sus in the notes)-----|


e|---2h3p2h0h2-------------------------------------------|
B|---3------------------this outro is painfully easy-----|
G|---2--------------------listen to the song and you-----|
D|------------------------will have it down in 2 seconds-|
A|-------------------------------------------------------|
E|-------------------------------------------------------|

Verse:

e|-------------------------------------------------------|
B|-------------------------------------------------------|
G|-------------------------------------------------------|
D|-------0------0----4h5p4---4-5-7---------------5-------|
A|---0h2---2////5----------5--------5p3-5p3p0------5-4-0-|
E|---------------------------------------------3---------|


e|--------------------------x-3-3-x -2h3p2p0h2-----------|
B|----------------------2-2-x-3-3-x--3-------------------|
G|----------------------2-2-x-0-0-x--2-------------------|
D|------7-7-------------2-2-x-0-0-x----------------------|
A|--7/9---7----5-4-0----0-0-x-2-2-x----------------------|
E|--------------------------x-3-3-x----------------------|

	Two guitars are used in this song, and the chords do overlap the picking.  
So find a friend.

Now... the verse is played twice before the vocals and then twice during the vocals... then
after the vocals:

e|-------------3-x-3--------------2-x-2----------------|
B|-------------3-x-3--------------3-x-3----------------|
G|-------------0-x-0--------------2-x-2----------------|
D|------0------0-x-0-------0---0--0-x-0----------------|
A|--0h2---2----2-x-2---0h2---2------x------------------|
E|----------3--3-x-3----------------x------------------|
									Play twice
e|--------------------3----------------------------------------|
B|---7-7-7-6-5---5-4--3----------------------------------------|
G|---7-7-7-6-5---5-4--4---------------------7p5---5------------|
D|---7-7-7-6-5---5-4--5-------4h5p4----4-5-7------7---7-5-7----|
A|---5-5-5-4-3---3-2--5--0-3-5-------5-------------------------|
E|--------------------3----------------------------------------|


e|-------------------------------------------------------|
B|-------------------------------------------------------|
G|-5h7p5 7-----------------------------------------------|
D|-------------------------------------------------------|
A|-------------------------------------------------------|
E|-------------------------------------------------------|


The verse is now played twice more, and just incase you forgot what it looks like:

e|-------------------------------------------------------|
B|-------------------------------------------------------|
G|-------------------------------------------------------|
D|-------0------0----4h5p4---4-5-7---------------5-------|
A|---0h2---2////5----------5--------5p3-5p3p0------5-4-0-|
E|---------------------------------------------3---------|


e|--------------------------x-3-3-x -2h3p2p0h2-----------|
B|----------------------2-2-x-3-3-x--3-------------------|
G|----------------------2-2-x-0-0-x--2-------------------|
D|------7-7-------------2-2-x-0-0-x----------------------|
A|--7/9---7----5-4-0----0-0-x-2-2-x----------------------|
E|--------------------------x-3-3-x----------------------|

Now the Intro is repeated as an outro:

e|--14---9h10p9----12h13p12--7h8p7---9h10p9---7---4/5----|
B|--15---10--------13--------8-------10-------8---5/6----|
G|--14---9---------12--------7-------9--------7---4/5----|
D|-------------------------------------------------------|
A|--------------(note: when playing this, hit the--------|
E|--------------whole chord as you sus in the notes)-----|


e|---2h3p2h0h2-------------------------------------------|
B|---3------------------this outro is painfully easy-----|
G|---2--------------------listen to the song and you-----|
D|------------------------will have it down in 2 seconds-|
A|-------------------------------------------------------|
E|-------------------------------------------------------|

13. Wiseman

-----------------------------------------------------------------------|
--8-8--8---8-8-------------------------------------------7-7--7---7-7--|
--9-9--9---9-9-----9--9---9----9--9----------------------7-7--7---7-7--|
--9-9--9---9-9-----10-10--10---10-10----5-5--5---5-5-----7-7--7---7-7--|
--7-7--7---7-7-----10-10--10---10-10----5-5--5---5-5-----5-5--5---5-5--|
-------------------8--8---8----8--8-----3-3--3---3-3-------------------|
do this as many times as needed then do this picking when he sing -
neeeeeeeeeeeeed-(all i neeeeeeeed)

---------------------------------------------------------|
---8---8---8----------------------------------7---7----7-| then start the
----9---9------9----9-----9------4---4---4-----7---7-----|  picking again
----------------10----10----------5---5------------------|
--7---7---7----------------------------------5---5---5---|   THEN.......
--------------8----8-----8------3---3---3----------------|

----------------------------------------------------------------|
----------------------------------------------------------------|
----------------------------------------------------------------| then after
-------9-9-t-------------------------------------7-7-5-5-4h5-4--| this.....
---7-7-------------10-10-t---------5-5-t-----5-5----------------|
-------------7-8-8-------------3-3------------------------------|

-----------------|             |----5h7-5---5-| this is the
--8---------7----|down strum   |----------7---| last picking.
--9--9---4--7----|once         |--------------|
--9--10--5--7----| then.....   |--------------|
--7--10--5--5----|             |--------------|
-----8---3-------|             |--------------|

14. I Used to Love Her

chords
  D A G
e-5-5-3-|
B-7-5-3-|
G-7-6-4-|
D-7-7-5-|
A-5-7-5-|
E---5-3-|

Intro : D A G A

D              A      G                      A
I used to love her oh yeah But i had to kill her
D              A      G                      A
I used to love her oh yeah But i had to kill her
G               A   G               A
I knew i'd miss her So i had to put her
G            A           D
She's buried right In my backyard
D              A      G                      A
I used to love her oh yeah But i had to kill her
D              A      G                      A
I used to love her oh yeah But i had to kill her
G               A   G               A
She bitched so much She drove me nuts
G            A           D
I guess we're happier this way
D              A      G                      A
I used to love her oh yeah But i had to kill her
D              A      G                      A
I used to love her oh yeah But i had to kill her
G            A   G        A
I had to put her Six feet under
G            A           D
And i can still hear her complain
D              A      G                      A   D A G A X3
I used to love her oh yeah But i had to kill her
D              A      G                      A
I used to love her oh yeah But i had to kill her
D              A      G                      A
I used to love her oh yeah But i had to kill her
G               A   G               A
She bitched so much She drove me nuts
G            A           D
I guess were happier this way

End on D

15. Prophet

G               F
But I aint no prophet
  C                  G
To cure some damn disease
G                       F
And would you help me anyway
  C             G
If i was on my knees
G                     F
I'm going through my time of change
  C            G
In my time of need
G             F
And every little thing is gonna
  C         G
Be all the same  (who ah)

*(Strum Faster)*
G                        F
And then i thought to my self
     C                 G
I'm gonna marry into wealth
G                               F                 C             G
I'm gonna take everything she's got to offer and keep it for myself
 (continue with G)
Ohhh oh oh

Chorus:
F           C
She said to me
     F               C
I don't like what i see
    F        C
And i say to her
 G (let ring)
I don't even know you there
Добавлено: 03.12.2013
Другие материалы по этой песне:
  • Аккорды и текст

Страница создана 28.10.2013
http://primanota.ru/slightly-stoopid/live-direct-acoustic-roots-chords.htm
Привет, Гость.
Предлагаем пройти революционный курс по гитаре.
Подарок от PrimaNota.Ru, забирай!