PrimaNota.ru - самый крупный в мире бесплатный архив песенных текстов, аккордов, табулатур и нот


Slightly Stoopid - Just Thinking - таба, бас-таба, видео

Регистрация Запомнить меня
Войти через:  Facebook Google Twitter Vk Yandex Mail.ru

Slightly Stoopid - Just Thinking - таба, бас-таба, видео

Печатать
Просмотров: 111
Уроки эстрадного вокала в Санкт-Петербурге
Авторы музыки: Slightly Stoopid

-------------------------------------------------------------------------------
                             JUST THINKING - Slightly Stoopid
-------------------------------------------------------------------------------
Tabbed by: Zack Mac
one of my favorite jams by slightly stoopid, especially live versions
it is only 2 chords and this the gist of it... you can play around with it too
ill try to tab the solo later

Tuning: EADGBe
    
     Am7                             Dm7
e|----5-------------------------------5----------------------------------------|
B|----5-------------------------------6----------------------------------------|
G|----5-------------------------------5----------------------------------------|
D|----5-------------------------------7----------------------------------------|
A|----7-------------------------------5----------------------------------------|
E|----5-------------------------------X----------------------------------------|


     Am7                               Dm7
e|-----------------------------------------------------------------------------|
B|-----------5-------6-------5-------------------6-------8-------6-------------|
G|--------------5-----------------5----------------5-------------------5-------|
D|----------------5-------5-----5-----------7--------7-------7------7----------|
A|-------7------------------------------5--------------------------------------|
E|----5------------------------------------------------------------------------|

so that is what Miles basically plays the whole time with some alterations and
added hammerons and slides, but play around with it. :)

rock on slightly stoopid!!!


************************************

| /   slide up
| \   slide down
| h   hammer-on
| p   pull-off
| ~   vibrato
| +   harmonic
| x   Mute note
| b   Bend
| pb  Pre-bend
| br  Bend release
| pbr Pre-bend release
| brb Bend release bend

************************************
Добавлено: 27.05.2016
Другие материалы по этой песне:
  • Аккорды и текст

Страница создана 02.06.2013
http://primanota.ru/slightly-stoopid/just-thinking-chords.htm
Привет, Гость.
Предлагаем пройти революционный курс по гитаре.
Подарок от PrimaNota.Ru, забирай!