PrimaNota.ru - самый крупный в мире бесплатный архив песенных текстов, аккордов, табулатур и нот


Slightly Stoopid - Jimi Baby Live - таба, видео

Регистрация Запомнить меня
Войти через:  Facebook Google Twitter Vk Yandex Mail.ru

Slightly Stoopid - Jimi Baby Live - таба, видео

Печатать
Просмотров: 47
-------------------------------------------------------------------------------
                             Jimi Baby - Slightly Stoopid
-------------------------------------------------------------------------------
Tabbed by: Spencer Verdon
E-mail: sverdon92@gmail.com

This is a tab of Jimi Baby Live at TRI Studios. Kyle's intro that he plays is 
absolutely gorgeous. I spent a few hours really trying to get this down and 
I'm almost 100% positive this is correct, but as always, if you think anything
is wrong please don't hesitate to let me know.

Also, this is my first tab, so pardon any formatting issues. 




Tuning: Standard

This is the little riff he plays in the style of Hendrix.

e|---------------------------------------------------------------------------|
B|---------------------------------------------------------------------------|
G|----------9-------------9h11p9----------------11-------------11h14p11------|
D|----------9--------9h11--------11p9-----------11--------11h14--------14p11-|
A|---9h11-------9h11----------------------11h12-----12h14--------------------|
E|---------------------------------------------------------------------------|

These are the chords he plays, figure out the strumming yourself. He sometimes
adds the little flourish at the end.

e|-----------------------------------------------|---9h12p9------------------|   
B|---------7----4/5----12-----------9------------|------------12p9-----------|
G|---------7----5/6----13-----------9------------|-------------------11p9----|
D|---------7----6/7----14-----------9------------|---------------------------| x2 Goes back to the beginning 
A|---7h9--------6/7----14----9h11----------------|---------------------------|    and plays this all again
E|-----------------------------------------------|---------------------------|

He arpeggiates these next chords.

e|-------------------------------------------7/12--12----9h12p9--------------|
B|------9------4-------2------4-------9-------------------------12p9---------|
G|-------9------4-------2------4-------9-----------------------------11p9----|
D|---------------4--------------4-------9------------------------------------|
A|----7-------2-------0------2-------7---------------------------------------|
E|---------------------------------------------------------------------------|

e|----9h11p9---7h9p7---5h7p5----4-----7p5------------7/12--------------------|
B|----9--------7-------6--------5-----6------9-------------------------------|
G|----10-------8-------7--------6-----7------9-------------------------------|
D|----11-------9-------7--------6-----7------9-------------------------------|
A|-------------------------------------------7-------------------------------|
E|---------------------------------------------------------------------------|

Some scale stuff.

e|----12p9-----12/14-12------------------------------------------------------|
B|--------12p9----------14--12/14--------------------------------------------|
G|---------------------------------13br--------------------------------------|
D|---------------------------------------------------------------------------|
A|---------------------------------------------------------------------------|
E|---------------------------------------------------------------------------|

e|---------------------------------------------------------------------------|
B|---------------------------------------------------------------------------|
G|---------------------------------------------------------------------------|
D|----9/11-9--9--------------------------------------------------------------|
A|----------11-11-9/7----7/9-7/4---7/9-7-------------------------------------|
E|--------------------9----------7-------------------------------------------|

Chords w/ base notes.

e|-----0----------2----------4------5------0---------------------------------|
B|-----0----------2----------4------5------0---------------------------------|
G|-----1----------2----------4------6------1---------------------------------|
D|-----2----------4----------6------7------2---------------------------------| x2
A|-----2----------4----------6------7------2---------------------------------|
E|---0-0----0-1-2-2----2-3-4-4----5-5----0-0---------------------------------|


And thats the intro for you. He starts off at the beginning again and repeats
with a little variation of whats above. I'll tab out the two main chords that 
he uses for the rest of the song below, but beyond that you're on your own!

e|------------4---------2----------------------------------------------------|
B|------------4---------2----------------------------------------------------|
G|------------4---------2----------------------------------------------------|
D|------------6---------4----------------------------------------------------|
A|------------7---------5----------------------------------------------------|
E|------------7---------5----------------------------------------------------|




************************************

| /   slide up
| \   slide down
| h   hammer-on
| p   pull-off
| ~   vibrato
| +   harmonic
| x   Mute note
| b   Bend
| pb  Pre-bend
| br  Bend release
| pbr Pre-bend release
| brb Bend release bend

************************************
Добавлено: 28.10.2015
Вам также может быть интересно:
Другие материалы по этой песне:
  • Аккорды и текст

Страница создана 28.10.2015
http://primanota.ru/slightly-stoopid/jimi-baby-live-chords.htm
Привет, Гость.
Предлагаем пройти революционный курс по гитаре.
Подарок от PrimaNota.Ru, забирай!