PrimaNota.ru - самый крупный в мире бесплатный архив песенных текстов, аккордов, табулатур и нот


Slightly Stoopid - Intro - таба, видео

Регистрация Запомнить меня
Войти через:  Facebook Google Twitter Vk Yandex Mail.ru

Slightly Stoopid - Intro - таба, видео

Печатать
Просмотров: 74
Уроки эстрадного вокала в Санкт-Петербурге
			     Intro - Slightly Stoopid
Tabbed by:Bobby J
Email:waddupdawg123@yahoo.com

Tuning: Standard

This is the first track of Stoopid's "Closer To The Sun" album. It sounds pretty perfect
me. Listen to the song for the rhythm and very slight variations.


(0:13)
    A   G   A   G           Asus D  Asus D
e|-0-0--3--0-0--3----5p3----0-0--1--0-0--1----1-----------|
B|-2-2--3--2-2--3-3h5---5p3-3-3--3--3-3--3-1h3-3p1--------|
G|-2-2--0--2-2--0-----------2-2--2--2-2--2--------2-------|
D|-2-2--0--2-2--0-----------------------------------------|
A|-0-0--2--0-0--2-----------------------------------------|
E|------3-------3-----------------------------------------|

Play that a couple times then:

   A   G        A   G      Asus D    Asus D
e|-5-5--3---7~--5-5--3---7~--0--1---5~-0--1----5~----------|
B|--5-5--3-------5-5--3-------3--3------3--3---------------|
G|--------4------------4-------2--2------2--2--------------|
D|---------------------------------------------------------|
A|---------------------------------------------------------|
E|---------------------------------------------------------|

(0:55)

e|--7~-/10-8-7-8-7-5-7-5--5--------5-----------------------|
B|----------------------8---5~---5--5-3-1-3-1--------------|
G|-------------------------------------------2~------------|
D|---------------------------------------------------------|
A|---------------------------------------------------------|
E|---------------------------------------------------------|

That's it. If you have any comments or corrections, leave them here or email me
at waddupdawg123@yahoo.com

Stay stoopid.


| /  slide up
| \  slide down
| h  hammer-on
| p  pull-off
| ~  vibrato
| +  harmonic
| x  Mute note
===========================================================================
Добавлено: 25.06.2013
Другие материалы по этой песне:
  • Аккорды и текст

Страница создана 25.06.2013
http://primanota.ru/slightly-stoopid/intro-chords.htm
Привет, Гость.
Предлагаем пройти революционный курс по гитаре.
Подарок от PrimaNota.Ru, забирай!