PrimaNota.ru - самый крупный в мире бесплатный архив песенных текстов, аккордов, табулатур и нот


Slightly Stoopid - Im So Stoned - аккорды и текст, таба, бас-таба, видео

Регистрация Запомнить меня
Войти через:  Facebook Google Twitter Vk Yandex Mail.ru

Slightly Stoopid - Im So Stoned - аккорды и текст, таба, бас-таба, видео

Печатать
Просмотров: 67
Im So Stoned
Slightly Stoopid
Props to pktplayer for the intro

e--------------------------------------------------------------------------------------|
B--------------------------------------------------------------------------------------|
G--7---9-7-6--7-6-4--0--44-6---7--9-7-6--7-9-11--12-11-9--11-9-7--9-7-6-7-6-4--0--44-6-|
D--------------------------------------------------------------------------------------|
A--------------------------------------------------------------------------------------|
E--7---8-7-5--7-5-3--3--33-5---7--8-7-5--7-8-10--12-10-8--10-8-7--8-7-5-7-5-3--3--33-5-|

e---7--7--7--2--7--7--7--2-----------------|
B---7--7--7--2--7--7--7--2-----------------|
G---7--7--7--3--7--7--7--3-----------------|
D---9--9--9--4--9--9--9--4-----------------|
A---9--9--9--4--9--9--9--2-----------------|
E---7--7--7--2--7--7--7--2-----------------|

e---5--5--5--2--5--5--5--2-----------------|
B---5--5--5--2--5--5--5--2-----------------|
G---6--6--6--3--6--6--6--3-----------------|
D---7--7--7--4--7--7--7--4-----------------|
A---7--7--7--4--7--7--7--2-----------------|
E---5--5--5--2--5--5--5--2-----------------|

Repeat that whole section twice, then come the lyrics

Bm
I'm so stoned
        A
And i'm free
So free
            D
Said if you roll another spliff sir
          C#            C    Bm
Won't cha pass it right over to me
Bm
I'm so stoned
        A
And I'm free
So so free
           D
But if you tell it
In a letter girl
    C#                 C       Bm
You know that you aint no good for me

Basically when it gets to the D, C#, C, part its...
D:  4 times
C#: 2 times
C:  2 times
I prefer to use the barre chords at the 10th fret for the D

I would tab the solo, but I have about 90% of it down
Добавлено: 29.09.2013
Другие материалы по этой песне:
  • Аккорды и текст

Страница создана 16.06.2013
http://primanota.ru/slightly-stoopid/im-so-stoned-chords.htm
Привет, Гость.
Предлагаем пройти революционный курс по гитаре.
Подарок от PrimaNota.Ru, забирай!