PrimaNota.ru - самый крупный в мире бесплатный архив песенных текстов, аккордов, табулатур и нот


Slightly Stoopid - Fire Shot - текст песни, таба, видео

Регистрация Запомнить меня
Войти через:  Facebook Google Twitter Vk Yandex Mail.ru

Slightly Stoopid - Fire Shot - текст песни, таба, видео

Печатать
Просмотров: 91
Tuning: Standard

 Guitar One      Guitar Ones riff is almost all Palm Muted
e|--------------------------------------------------------||-------------------|
B|-------------------------------------------------------o||-------------------|
G|--------9---------9------------------9---------9----11--||-------------------|
D|-9-9-11---11-9-11---11-9------9-9-11---11-9-11---11-----||-------------------|
A|-------------------------------------------------------o||--10\--------------|
E|--------------------------------------------------------||--------12\--------|
 Guitar Two                              \-Slide down to the bottom of the neck
e|--------------------------------||------------------------------------------||
B|-------------------------------o||-----------------------------------------o||
G|--------------------------------||------------------------------------------||
D|-2-2------------------1---1H2---||------------------------------------------||
A|------------2-2-2-2-2---2------o||-----------7-7------------------6---6H7--o||
E|-----0-0------------------------||---------------0-0----7-7-7-7-7---7-------||
                          H-Hammer
^^
From Adam (Blackspider91@cox.net)

And here is the third rhythm part played by Guitar One later in the song over and over. 
to the song to get the rhythm.

e|--7--7---7--7-----------------------||
B|--9--9---7--7----------------------o||
G|--9--9---8--8-----------------------||
D|--9--9---9--9-----------------------||
A|--7--7---9--9----------------------o||
E|---------7--7-----------------------||

Then Guitar Two goes to:
Repeated
e|------------------------------------||
B|-----------------------------------o||
G|------------------------------------||
D|-2-2--------------------------------||
A|------2-2--0-0--2-2----------------o||
E|------------------------------------||
And sometimes something like
e|------------------------------------||
B|-----------------------------------o||
G|------------------------------------||
D|-2-2--------------------------------||
A|------2-2--0h2-0-0--2-2------------o||
E|------------------------------------||
Or
e|------------------------------------------||
B|-----------------------------------------o||
G|------------------------------------------||
D|-2-2----------------------------0-2-4-----||
A|------2-2--0h2-0-0--2-2-2h4p2-4----------o||
E|------------------------------------------||
Open to improvisation

Nick
nnizzle262@yahoo.com
Добавлено: 13.10.2013
Другие материалы по этой песне:
  • Аккорды и текст

Страница создана 03.06.2012
http://primanota.ru/slightly-stoopid/fire-shot-chords.htm
Привет, Гость.
Предлагаем пройти революционный курс по гитаре.
Подарок от PrimaNota.Ru, забирай!