PrimaNota.ru - самый крупный в мире бесплатный архив песенных текстов, аккордов, табулатур и нот


Slightly Stoopid - Couldn'T Get High - текст песни, таба, видео

Регистрация Запомнить меня
Войти через:  Facebook Google Twitter Vk Yandex Mail.ru

Slightly Stoopid - Couldn'T Get High - текст песни, таба, видео

Печатать
Просмотров: 74
Band: Slightly Stoopid
Song: Couldn't Get High
Album: Live & Direct: Acoustic Roots
Tabbed By: Chris (duffs_addy@hotmail.com)
Comments: based on the previous tab by andy
Tuning: Standard (EADGBE)


i haven't written which part is the intro/verse/chorus etc.. just play them 
and see where the fit in in the song.  this is still a work in progress, i 
don' think the solos are quite right, and i haven't figured out the part 
just following the intro when he starts singing.  also, when you're playing 
the d in the chorus, lift up your 7 finger (so that your finger is covering 
just the fifth fret) and listen, i think it's what they do.

e -------------------------------------------------------------------
B --5-----xxxx-5---------5-----xxxx-5--------------------------------
G --5h6---xxxx-5h6-------5h6---xxxx-5h6---5-5h6p5h6p5h6--------------
D ------7----------7-5-7-----7----------7----------------------------
A -------------------------------------------------------------------
E -------------------------------------------------------------------

e -------------------------------------------------------------------
B --5-----xxxx-5----------7-5-7--------------------------------------
G --5h6---xxxx-5h6--------7-5-7--7/5---5-----------------------------
D ------7----------7-5-7--7-5-7------7---7-5-------------------------
A ------------------------5-3-5--------------7-----------------------
E -------------------------------------------------------------------

e ---------------------------------------------------------5-5-5-5--------
B ---------------------------------------------------------5-5-5-5-7-7-7--
G --5-------5h7-7b8b7-5h7p5--------------------------------6-6-6-6-7-7-7--
D ----7-5-7-----------------7-5-7-5--------5h7p5-----------7-7-----7-7-7--
A ----------------------------------7-5-7--------7-6-5-----7-7-----5-5-5--
E -----------------------------------------------------5-7-5-5------------

e --5---5-----------------------------5----
B --5-7-5-----------------------------5-7--
G --6-7-6-----------------------------6-7--
D --7-7-7-7/5---5---------------------7-7--
A --7-5-7-----7---7-5-7---------------7-5--
E --5---5---------------0-2-0-3-0-4-0-5----

e --5---5------------------------------5----
B --5-7-5------------------------------5-7--
G --6-7-6------------------------------6-7--
D --7-7-7-7/5--------------------------7-7--
A --7-5-7-----7-6-5--------------------7-5--
E --5---5-----------5-8--0-2-0-3-0-4-0-5----

e ---------------------------------------------------5---------
B ----------------------77-------------------7p5-----5---------
G ----------------------77-------------------7p5-----6---------
D --555555-4--------2---77--555555-4---4/5h7-----5h7-7---------
A ----------5-3h5p3---5-55-----------5---------------7---------
E ---------------------------------------------------5---------

e ------------------------------------------------------5-------
B ----------------------77------------------7-5---------5-------
G ----------------------77------------------7-5---------6-------
D --555555-4--------2---77--55555-4---4-5-7-----5-7-5-7-7-------
A ----------5-3-5-3---5-55----------5-------------------7-------
E ------------------------------------------------------5-------

e -------------------------------------------------------------------
B -------------------------------------------------------------------
G -------------------------------------------------------------------
D -------------------------------------------------------------------
A -------------------------------------------------------------------
E -------------------------------------------------------------------

     
Добавлено: 24.09.2013
Другие материалы по этой песне:
  • Аккорды и текст

Страница создана 30.03.2012
http://primanota.ru/slightly-stoopid/couldnt-get-high-chords.htm
Привет, Гость.
Предлагаем пройти революционный курс по гитаре.
Подарок от PrimaNota.Ru, забирай!