PrimaNota.ru - самый крупный в мире бесплатный архив песенных текстов, аккордов, табулатур и нот


Slightly Stoopid - Chaunch - текст песни, таба, бас-таба, видео

Регистрация Запомнить меня
Войти через:  Facebook Google Twitter Vk Yandex Mail.ru

Slightly Stoopid - Chaunch - текст песни, таба, бас-таба, видео

Печатать
Просмотров: 95
Уроки эстрадного вокала в Санкт-Петербурге
Song: Chaunch
Artist: Slightly Stoopid
Album: Slightly Not Stoned Enough to Eat Breafast Yet Stoopid


This is the fourth song on Stoopid's newest album. I don't have all of the song, but I 
I'd post what I have to help some people out.

Listen to the song for timing.

(:22)

e-5555------5555------------5555------?-|
b-6666------6666------------6666------?-|
g-5555-10/9-5555-10h12p10-9-5555-10/9-?-|
d-7777------7777------------7777------?-|
a-------------------------------------?-|
E-------------------------------------?-|


(:32) Play this whole thing twice

e--10-8---------------------------|
b-------8h10p8-6/3----------------|
g------------------7h10p7---75----|
d------------------------10---75--|
a---------------------------------|
E---------------------------------|


e--10-8-------------------------------|
b-------8h10p8-6/3---------------10---|
g------------------7h10p7--7h10p7-----|
d------------------------10-----------|
a-------------------------------------|
E-------------------------------------|


e-10-8--------------------------|
b------8h10p8-6/3---------------|
g-----------------7h10p7---75---|
d-----------------------10---75-|
a-------------------------------|
E-------------------------------|


e--------------------------|
b--------------------------|
g--10---10----14----14-----|
d----10---10----14----14---|
a-8----8----12----12-------|
E--------------------------|

(2:43) listen to the song for timing

                  1st end              2nd end
e----------------|-------------------|-15-13--13----------|
b----------------|-------------------|------15--15-13-15--|
g-10-9-9-7-7-5-57|--109-1012109-10957|--------------------|
d----------------|-------------------|--------------------|
a----------------|-------------------|--------------------|
E----------------|-------------------|--------------------|


That's all I have. If you have other parts of the song or corrections for this tab, 
them here or email me at waddupdawg123@yahoo.com
Добавлено: 08.11.2013
Другие материалы по этой песне:
  • Аккорды и текст

Страница создана 24.08.2013
http://primanota.ru/slightly-stoopid/chaunch-chords.htm
Привет, Гость.
Предлагаем пройти революционный курс по гитаре.
Подарок от PrimaNota.Ru, забирай!