PrimaNota.ru - самый крупный в мире бесплатный архив песенных текстов, аккордов, табулатур и нот


Slightly Stoopid - Castles Of Sand - таба, бас-таба, видео

Регистрация Запомнить меня
Войти через:  Facebook Google Twitter Vk Yandex Mail.ru

Slightly Stoopid - Castles Of Sand - таба, бас-таба, видео

Печатать
Просмотров: 69
-------------------------------------------------------------------------------
			     Castles of Sand - Slightly Stoopid
-------------------------------------------------------------------------------
Tabbed by: Sam Torok
Email: voodoonirvana@gmail.com

This is a great song and really fun to play. Also fun to just jam to if you get it down well enough.

Tuning: Standard

u-up
d-down

All on the upstroke.

        D         C       D       C      D      C
e|------10--------8-------10------8------10-----8----------------------------|
B|------10--------8-------10------8------10-----8----------------------------|
G|------11-x4-----9-x4----11-x4---9-x4---11-x4--9-x4-------------------------|
D|------12--------10------12------10-----12-----10---------------------------|
A|---------------------------------------------------------------------------|
E|---------------------------------------------------------------------------|
     A        A#
   u d u    u d u        C
e|-5-5-5----6-6-6--------8------------|
B|-6-6-6----7-7-7--------8------------|
G|-7-7-7----8-8-8---X3---9------------|
D|-----------------------10-----------|
A|------------------------------------|
E|------------------------------------|

E|----------------------------------------------------------------------------|
B|---10------------------10---------------8-----------8-----------------------|
G|------11----11------------11----11--------9----9------9-----9---------------|
D|---------12-----12-----------12----12-------10---10------10---10------------|
A|----------------------------------------------------------------------------|
E|----------------------------------------------------------------------------|
                                          
E|----------------------------------------------------------------------------|
B|---10------------------10-----------------13---------------13---------------|
G|------11----11------------11----11-----------12----13---------12----13------|
D|---------12-----12-----------12----12-----------14----14---------14----14---|
A|----------------------------------------------------------------------------|
E|----------------------------------------------------------------------------|


  D                            C
strike down the one sir come criticise you
   D                            C
strike down the one sir come jeprodise you, come jeprodise you
   D
and like a new grown seed
   C             
the man come and chop you down, he come chop you down
   D                                     C
and when your reaching for that sunshine he come chop you down, he come chop you down
   C                      D  
the man come he say to me

E|----------------------------------------------------------------------------|
B|---10------------------10---------------8-----------8-----------------------|
G|------11----11------------11----11--------9----9------9-----9---------------|
D|---------12-----12-----------12----12-------10---10------10---10------------|
A|----------------------------------------------------------------------------|
E|----------------------------------------------------------------------------|
                                          
E|----------------------------------------------------------------------------|
B|---10------------------10-----------------13---------------13---------------|
G|------11----11------------11----11-----------12----13---------12----13------|
D|---------12-----12-----------12----12-----------14----14---------14----14---|
A|----------------------------------------------------------------------------|
E|----------------------------------------------------------------------------|


 D                                      C
in the morning time youll see me by the ocean floor
  D
building castles
                 C
building castles made of sand

e|--------10h12-10---------10h12-10--------10h12-10--------10h12-10----------|
B|--10h12------------10h12-----------10h12-----------10h12-------------------|
G|---------------------------------------------------------------------------|
D|---------------------------------------------------------------------------|
A|---------------------------------------------------------------------------|
E|---------------------------------------------------------------------------|

D                                             C
said if your good to me you know that ill be good to you


e|--13p12-10-----------------------13p12-10----------------------------------|
B|-----------13p12-10-----------------------13p12-10-------------------------|
G|--------------------12p11--/14---------------------12p11--/14--------------|
D|---------------------------------------------------------------------------|
A|---------------------------------------------------------------------------|
E|---------------------------------------------------------------------------|



   D                                 C
you never really understood the meaning of the truth


e|--------10h12-10---------10h12-10--------10h12-10--------10h12-10----------|
B|--10h12------------10h12-----------10h12-----------10h12-------------------|
G|---------------------------------------------------------------------------|
D|---------------------------------------------------------------------------|
A|---------------------------------------------------------------------------|
E|---------------------------------------------------------------------------|

E|----------------------------------------------------------------------------|
B|---10------------------10---------------8-----------8-----------------------|
G|------11----11------------11----11--------9----9------9-----9---------------|
D|---------12-----12-----------12----12-------10---10------10---10------------|
A|----------------------------------------------------------------------------|
E|----------------------------------------------------------------------------|
                                          
E|----------------------------------------------------------------------------|
B|---10------------------10-----------------13---------------13---------------|
G|------11----11------------11----11-----------12----13---------12----13------|
D|---------12-----12-----------12----12-----------14----14---------14----14---|
A|----------------------------------------------------------------------------|
E|----------------------------------------------------------------------------|

E|---------------------------------|
B|-10--10--10h12--10--10-----------|
G|-------------------------11p12---|  x2
D|---------------------------------|
A|---------------------------------|
E|---------------------------------|

E|---------------------------------|
B|-8--8--8h10--8--8----------------|
G|--------------------9p10---------|  x2
D|---------------------------------|
A|---------------------------------|
E|---------------------------------|



e|--------------10h12-10--------10h12-10---------10h12-10------10h12-10------|
B|--------10h12--------------------------------------------------------------|
G|--11h12-----------------11h12------------11h12------------11---------------|
D|---------------------------------------------------------------------------|
A|---------------------------------------------------------------------------|
E|---------------------------------------------------------------------------|


e|--13p12-10-----------------------13p12-10----------------------------------|
B|-----------13p12-10-----------------------13p12-10-------------------------|
G|--------------------12p11--/14---------------------12p11--/14--------------|
D|---------------------------------------------------------------------------|
A|---------------------------------------------------------------------------|
E|---------------------------------------------------------------------------|

e|-14------------------------------------------------------------------------|
B|----15------------------------10-------------------------------------------|
G|-------14--12p11-12p11--12p11----12-11-12p11-------------------------------|
D|---------------------------------------------12----------------------------|
A|---------------------------------------------------------------------------|
E|---------------------------------------------------------------------------|

e|---------------------------------------------------------------------------|
B|---------------------------------------------------------------------------|
G|------7h9-7-------7h9-7-------7h9-7-------7h9-7---7~~~---------------------|
D|--7h9-------9-7h9-------9-7h9-------9-7h9-------9--------------------------|
A|---------------------------------------------------------------------------|
E|---------------------------------------------------------------------------|

e|--13p12-10-----------------------13p12-10----------------------|
B|-----------13p12-10-----------------------13p12-10-------------|
G|--------------------12p11--/14---------------------12p11--/14--|
D|---------------------------------------------------------------|
A|---------------------------------------------------------------|
E|---------------------------------------------------------------|

And then the rest is all just repeated parts from earlier in the song.



| /  slide up
| \  slide down
| h  hammer-on
| p  pull-off
| ~  vibrato
| +  harmonic
| x  Mute note
===============================================================================
Добавлено: 23.08.2013
Другие материалы по этой песне:
  • Аккорды и текст

Страница создана 23.08.2013
http://primanota.ru/slightly-stoopid/castles-of-sand-chords.htm
Привет, Гость.
Предлагаем пройти революционный курс по гитаре.
Подарок от PrimaNota.Ru, забирай!