PrimaNota.ru - самый крупный в мире бесплатный архив песенных текстов, аккордов, табулатур и нот


Slightly Stoopid - Basher - таба, бас-таба, видео

Регистрация Запомнить меня
Войти через:  Facebook Google Twitter Vk Yandex Mail.ru

Slightly Stoopid - Basher - таба, бас-таба, видео

Печатать
Просмотров: 76
Song: Basher
Band:Slightly Stoopid
Album:Closer to the Sun
Tabbed By: Kevin (shenanigans682@yahoo.com)

delay guitar
 [0:30] part1a
E|--15H17P15----------|
B|-----------15H17P15-|
G|--------------------|
D|--------------------|
A|--------------------|
E|--------------------|

 [0:33] part1b                     play parts 1a and 1b 2x
E|--17P15H17----------------------------------------------------------|
B|-----------15H17P15-------------------------------------------------|
G|---------------------14H16P14-14B-14-------14B-14-------------------|
D|-------------------------------------14-16--------17----------------|
A|-----------------------------------------------------17----12-14-17-|
E|--------------------------------------------------------------------|


 [0:55] part 2  play 4x                        4th time end with this
E|--7-7-10-7-7---------7----------10-10-10-10-|-10-10-10/| slide into part3
B|-------------10-8-10---10-8-10--10-10-10-10-|----------|
G|--------------------------------------------|----------|
D|--------------------------------------------|----------|
A|--------------------------------------------|----------|
E|--------------------------------------------|----------|

 [1:17] part 3a
E|-/12-----------------------12-------------|
B|-----12-12-10-12--12-12-12----12-12-10-12-|
G|------------------------------------------|
D|------------------------------------------|
A|------------------------------------------|
E|------------------------------------------|
        part 3b                  play part 3a and 3b 4x
E|---12-12-10----------------------10-------------|
B|-12---------12-12-10-12--12-12-12-- 12-12-10-12-|
G|------------------------------------------------|
D|------------------------------------------------|
A|------------------------------------------------|
E|------------------------------------------------|

3rd time you play 3a and 3b  part 1a and 1b come in.

then play part 2 4x
4th time play this
E|--7-7-10-7-7---------7----------|
B|-------------10-8-10---10-8-10--|
G|--------------------------------|
D|--------------------------------|
A|--------------------------------|
E|--------------------------------|

and thats it. i hope im completely accurate im about 99.7% sure. but if u have any 
feel free to locate me at shenanigans682@yahoo.com
Добавлено: 16.11.2013
Другие материалы по этой песне:
  • Аккорды и текст

Страница создана 13.09.2013
http://primanota.ru/slightly-stoopid/basher-chords.htm
Привет, Гость.
Предлагаем пройти революционный курс по гитаре.
Подарок от PrimaNota.Ru, забирай!