PrimaNota.ru - самый крупный в мире бесплатный архив песенных текстов, аккордов, табулатур и нот


Slightly Stoopid - Bandelero - текст песни, таба, бас-таба, видео

Регистрация Запомнить меня
Войти через:  Facebook Google Twitter Vk Yandex Mail.ru

Slightly Stoopid - Bandelero - текст песни, таба, бас-таба, видео

Печатать
Просмотров: 92
Уроки эстрадного вокала в Санкт-Петербурге
-------------------------------------------------------------------------------
			     Bandelero - Slightly Stoopid
-------------------------------------------------------------------------------

Tabbed by: RagingDuck/RoughIdle
Tuning: standard

This is how I hear them playing live on the Winter Tour disk.

_____INTRO__________________________

e|---------------------------------|
b|---------------------------------|
g|---------------------------------|
d|-----9-7--------------7-6-6------|
a|-7-7-----7---9--9-9-9-------9-9--|
E|---------------------------------| x4

e|---------------------------|
b|---------------------------|
g|-9-9-9-9--9/11-9/11--------|
d|---------------------------|
a|---------------------------|
E|---------------------------|

---------------------------|
---------------------------|
-11-11-11-11--11/13-11/13--|
---------------------------|
---------------------------|
---------------------------| x4



e|-9-9-7-7h9-7---7-7h9p7-------|
b|-9-----------7---------7-9---|
g|-----------------------------|
d|-----------------------------|
a|-----------------------------|
E|-----------------------------|


----------12-----------12-----------12-|
-12-12-12-----12-12-12-----12-12-12----|
---------------------------------------|
---------------------------------------|
---------------------------------------|
---------------------------------------|


-9-9-7-7h9-7---7-7h9p7-------|
-9-----------7---------7-----|
-------------------------9---|
-----------------------------|
-----------------------------|
-----------------------------|

                                             *
--------------12--12^14-14-14--14^^--14-14-(12)-|
-12-12--12^14------------------------------(12)-|
------------------------------------------------|
------------------------------------------------|
------------------------------------------------|
------------------------------------------------|  x2
*:skip on 2nd time, except during OUTRO


_____VERSE__________________________

E B F#m F#m   E B F#m F#m (w/ reggae strokes)
I said, you want some even though you never need it, do you feel it?...
...
Wouldn't you like it if we roll a little faster?

(intro riff) x2

Said, I'm going, going, back, back...
...
We gonna shoot up the one, say no

(intro riff) x2
Добавлено: 07.07.2013
Другие материалы по этой песне:
  • Аккорды и текст

Страница создана 07.07.2013
http://primanota.ru/slightly-stoopid/bandelero-chords.htm
Привет, Гость.
Предлагаем пройти революционный курс по гитаре.
Подарок от PrimaNota.Ru, забирай!