PrimaNota.ru - самый крупный в мире бесплатный архив песенных текстов, аккордов, табулатур и нот


Slick Shoes - I Guess - текст песни, таба, видео

Регистрация Запомнить меня
Войти через:  Facebook Google Twitter Vk Yandex Mail.ru

Slick Shoes - I Guess - текст песни, таба, видео

Печатать
Просмотров: 85
		   I Guess
By Slick Shoes


Intro:


G-----------------------------------------------------------------------------
D-10-10-10-10--10-10-8-10--6666--66-88--10-10-10-10--10-10-8-10--66666-3333---
A-10-10-10-10--10-10-8-10--6666--66-88--10-10-10-10--10-10-8-10--66666-3333---
E--8--8--8--8---8--8-6--8--4444--44-66---8--8--8--8---8--8-6--8--44444-1111---


G---------------------------888-10-77-8-7------------------------888-10-77-8-7
D-5..-10-10-10-10-----------888-10-77-8-7--10-10-10-10-----------888-10-77-8-7
A-5..-10-10-10-10-----------666--8-55-6-5--10-10-10-10-----------666--8-55-6-5
E-3..--8--8--8--8-10-8-11-8-----------------8--8--8--8-10-8-11-8--------------


when it says "R1", play this:


G-888-7-10-12-10-8--G
D-888-7-10-12-10-8--D
A-666-5--8-10--8-6--A
E-------------------E


C         A#      Ab
me, me myself and I
              A#        C         A# R1
I guess I'm scared you lied to me again
   C             A#   Ab            A#       Ab
I guess, foolish as I am, I have a weakness for you
                 A#        R1
'cause once you cared for me
C  D    D#        F                G
we all know that you were hurting deep inside
C  D      D#        F                G
we can't tell your life's regret is killing you


(INTRO; up to the part with the ..)


go!
C         A#       Ab                 A#      C             A#     R1
we never have the time to straighten out the lines between you and I
    C         A#      Ab
and if, if I saw you die
              A#        C                   A#   R1
I'm scared I would not cry because of what you said
C  D    D#        F                G
we all know that time's the only thing between us
C   D     D#       F             G
we can't tell that only God can help us work it out


G-5..8..---------5..--G
D-5..8..-6..-6-5-5..--D
A-3..6..-6..-6-5-3..--A
E--------4..-4-3------E


then:
G----------------8-8-8-8-8--------------------------G
D-10-10-10-10-10-8-8-8-8-8-6-6-6-6-6-10-10-10-10-10-D
A-10-10-10-10-10-6-6-6-6-6-6-6-6-6-6-10-10-10-10-10-A
E--8--8--8--8--8-----------4-4-4-4-4--8--8--8--8--8-E


(2X)


e-----------------------------------------------------13-13----13-13----13----
B--------------------------------------------------13-------13-------13----13-
G----------------------------------------3------------------------------------
D----1--0-1--------1---5-3h1-3----1..5-3---5-3-1------------------------------
A-3..-------1..1-3---3---------3..---------------3----------------------------


e-13-13----13-13----13----13-13----13-13----16-16-16-16-16-16-16-16-16----13--
B-------13-------13----13-------13-------16----------------------------13-----


e-13----13-13----13----13-13----13-13----13----13-13----13-13----------e
B----13-------13----13-------13-------13----13-------13-------11-9-8---B     
Добавлено: 05.07.2013
Другие материалы по этой песне:
  • Аккорды и текст

Страница создана 09.04.2012
http://primanota.ru/slick-shoes/i-guess-chords.htm
Привет, Гость.
Предлагаем пройти революционный курс по гитаре.
Подарок от PrimaNota.Ru, забирай!