PrimaNota.ru - самый крупный в мире бесплатный архив песенных текстов, аккордов, табулатур и нот


Slick Shoes - By What Right - текст песни, таба, видео

Регистрация Запомнить меня
Войти через:  Facebook Google Twitter Vk Yandex Mail.ru

Slick Shoes - By What Right - текст песни, таба, видео

Печатать
Просмотров: 85
		   Author/Artist: Slick Shoes
Title: By What Right
Album: Rusty
Transcribed by: John Farthing
Email: spamboy@mindless.com

This song is played very fast

Intro:
-----------------------------------------------------------------------------
-----------------------------------------------------------------------------
-9-9--7-9-9-------------------------------------7----------------------------
-9-9--7-9-9--9-8-8---8-8---5-5--5/7\5--5-7-7--7-7-7--------------------------
-7-7--5-7-7--9-8-8---8-8---5-5--5/7\5--5-7-7--7-5-7--------------------------
-------------7-6-6---6-6---3-3--3/5\3--3-5-5--5---5--------------------------
                                                                              

Verse:
-----------------------------------------------------------------------------
-----------------------------------------------------------------------------
-9-9-9-9-9-9-9-9------------------------------------------7------------------
-9-9-9-9-9-9-9-9-8-8-8-8-8-8-8-8-5-5-5-5-5-5-5-5-7-7-7-7--7-7----------------
-7-7-7-7-7-7-7-7-8-8-8-8-8-8-8-8-5-5-5-5-5-5-5-5-7-7-7-7--5-7----------------
-----------------6-6-6-6-6-6-6-6-3-3-3-3-3-3-3-3-5-5-5-5----5----------------
                                                                              

Pre-Chorus & Chorus:
-----------------------------------------------------------------------------
-----------------------------------------------------------------------------
-9-9-9--------------------9-9-9-9-9------------------------------------------
-9-9-9-8-8-8-7-7-7-5-5-5--9-9-9-9-9------------------------------------------
-7-7-7-8-8-8-7-7-7-5-5-5-----------------------------------------------------
-------6-6-6-5-5-5-3-3-3-----------------------------------------------------
                                                                              

If anybody has any other Slick Shoes tablature, or knows where I can find
some, e-mail me at spamboy@mindless.com     
Добавлено: 01.07.2013
Другие материалы по этой песне:
  • Аккорды и текст

Страница создана 18.05.2012
http://primanota.ru/slick-shoes/by-what-right-chords.htm
Привет, Гость.
Предлагаем пройти революционный курс по гитаре.
Подарок от PrimaNota.Ru, забирай!