PrimaNota.ru - самый крупный в мире бесплатный архив песенных текстов, аккордов, табулатур и нот


Slick Idiot - Idiot - таба, видео

Регистрация Запомнить меня
Войти через:  Facebook Google Twitter Vk Yandex Mail.ru

Slick Idiot - Idiot - таба, видео

Печатать
Просмотров: 76
Slick Idiot
Idiot
DickNity
Transcribed by: Tom Quinn

Band website:
http://www.slickidiot.de/

I got most of this from watching Guenter Schulz's hands at a show, so there may be a few 

errors.  Feel free to e-mail me (M0L3CH@yahoo.com) with any corrections.
Enjoy ;)

Tuning: Drop-D (D A D G B e)

MAIN RIFF
e|---------------------------------------------------------------------------------||
B|---------------------------------------------------------------------------------||
G|---------------------------------------------------------------------------------||
D|-----7-------6------5------3------2-3------7-------6------5------3---------------||
A|-----5-------4------3------1------2-3------5-------4------3------1--2-3-2---5*~--||
D|-0-0----0-0-----0-0----0-0----0-0-2-3--0-0----0-0-----0-0----0-0----2-3-2-0------||
   m m    m m     m m    m m    m m      m m    m m     m m    m m    m m m m

PRE-VERSE
e|---------------------------------------------------------||
B|---------------------------------------------------------||
G|---------------------------------------------------------||
D|-----2h3-3-----------2h3-3--3-----2h3-3-------3p0-0-(0)--||
A|-----2h3-3-----------2h3-3--3-----2h3-3-------3p0-0-(0)--||
D|-0-0-2h3-3-0-0-0-0-0-2h3-3--3-0-0-2h3-3-0-0-0-3p0-0-(0)--||
   m m       m m m m m          m m       m m m

VERSE
e|---------------------------||
B|---------------------------||
G|---------------------------||
D|-0--0--0--0----0--0--0--0--||
A|-0--0--0--0----0--0--0--0--||
D|-0--0--0--0----0--0--0--0--||
   m  m  m  m    m  m  m  m

BRIDGE
e|-------------------------------------||
B|-------------------------------------||
G|-------------------------------------||
D|-------------------------------------||
A|---------5-----4~----------5-----6~--||
D|-0-0-0-0---0-0-----0-0-0-0---0-0-----||
   m m m m   m m     m m m m   m m

SOLO

You'll need to listen carefully, I honestly don't know it.  Guenter Schulz is an incredible 

jazz player, and I am definitely NOT.


The lyrics are all online, and mostly correct.  Have fun.


Key:

m - Palm mute
h - Hammer-on
p - Pull-off
()- Ghost note
* - Pinch harmonic
~ - Vibrato
Добавлено: 03.11.2013
Вам также может быть интересно:
Другие материалы по этой песне:
  • Аккорды и текст

Страница создана 03.11.2013
http://primanota.ru/slick-idiot/idiot-chords.htm
Привет, Гость.
Предлагаем пройти революционный курс по гитаре.
Подарок от PrimaNota.Ru, забирай!