PrimaNota.ru - самый крупный в мире бесплатный архив песенных текстов, аккордов, табулатур и нот


Sleepy Sun - Wild Machines - таба, видео

Регистрация Запомнить меня
Войти через:  Facebook Google Twitter Vk Yandex Mail.ru

Sleepy Sun - Wild Machines - таба, видео

Печатать
Просмотров: 126
-------------------------------------------------------------------------------
                           Wild Machines – Sleepy Sun
-------------------------------------------------------------------------------
Tabbed by: Erik
Email: erik.nmgn@gmail.com

Tuning: Standard (EADGBe)

INTRO ELECTRIC I (Use lots of compression, a (muff) fuzz pedal and a wah! Oh, and the 
first note for the first guitar uses a tremolo-pedal. Yeah, why not. Second guitar just 
hits the Em-chord: x79987)
        Em
e|------7(x8)|
B|------8----|
G|------9----|
D|--7/9-9----|
A|------7----|
E|------x----|

INTRO ACOUSTIC (Guitar 1 (left channel on album playback) just strumming the chords, 
guitar 2 (right channel) is interesting!)
  Em (022000)                            C     D(xx0232)
e|------0--------------------------------0(x4)-0(x3)-|
B|--8\0-0--------------------------------1-----3-----|
G|--------0-2/4-4\2p0--------------------0-----0-----|
D|--------------------2-0-2/5-5h7p4-0-5--2-----4-----|
A|---------------------------------------3-----5-----|
E|---------------------------------------------------|
  Em
e|--------p0------3---0-------------------|
B|-8-5-0h3p0----------0-------------------|
G|-----------0-2/4-4\2x-------------------|
D|----------2---------2-2-0-2/5-7b8r7-5\2-|
A|----------------------------------------|
E|----------------------------------------|

INTRO ELECTRIC II
C(x4) D(x3)

VERSE I (Guitar 1, chords)
    Em                                                      C D
    Leave it in the mind, where the wolves are running wild
    Em                                      C D
    And the heavy rain never ceases to fall
    Em                                                       C D
    Heal this honest man before the night goes with the wind
    Em                                           C D
    And the tide recedes exposing all his faults

        (Guitar 2, playing something very similar to the acoustic intro)
  e|---------7-------------------------------3(x4)-5(x3) |
  B|-8-------8-------------------------------5-----7-----|
  G|----9-4h79-------------------------------5-----7-----|
  D|---------9--5-7/9-9\7p5-----5-5h7p4------5-----7-----|
  A|---------7--------------5-7---------5-7--3-----5-----|
  E|-----------------------------------------------------|
    First and third line (Leave it... & Heal this...)

  e|---------7-------------------------------3(x4)-5(x3) |
  B|-8-------8------8------------------------5-----7-----|
  G|----9-4h79-------------------------------5-----7-----|
  D|---------9-5h7/9-9\7p5-----5-7b8r7p5-----5-----7-----|
  A|---------7-------------5-7-----------7\--3-----5-----|
  E|-----------------------------------------------------|
   Second and fourth line (And the heavy... & And the tide...)

TO CHORUS I
    Am(x02210)    Am/G(302210) Am/F#(202210)
    With or   without   the    sun we'll grow
                                           /e|------------------------|
                                           |B|------------------------|
                                           |G|------------------------|
                                           |D|-----5-----5----(7h9-9)-|
                                           |A|--5h7-7-5h7-7-7-[5h7-7]-|
                                           \E|------------------------|

    Am         Am/G Am/F#
    Rise above winter's deep hole
                                           /e|------------------------|
                                           |B|------------------------|
                                           |G|------------------------|
                                           |D|-----5-----5----(7h9-9)-|
                                           |A|--5h7-7-5h7-7-7-[5h7-7]-|
                                           \E|------------------------|

                                           /e|------------------------|
                                           |B|------------------------|
                                           |G|------------------------|
                                           |D|-----5-----5-7-7b8r7p5--|
                                           |A|--5h7-7-5h7------------7|
                                           |E|------------------------|
                                           +
                                           |e|------------------------|
                                           |B|------------------------|
                                           |G|------------------------|
                                           |D|-----5--5-9-12-9-7-5----|
                                           |A|--5h7-7----------------7|
                                           \E|------------------------|

FREAKOUT
    Em(x79987) x(all muted) x x Em x x x Em x x x Em

CHORUS
    Em
    We all need a reason
    D               Am
    Why we hold our breaths
    Em                                D             Am
    Fill our dreams with sunny skies, so we'll rise again
    Em                        D                Am
    Breathe in the humid air, exhale the black smoke

INTERLUDE/SOLO
  Em
e|---------------------------------------------------------------------------|
B|--------------------7-------------------8-7--------------------------------|
G|-----------------79-9b11-9b11~r9-7h9-7h9---9-7h9-7-7-7~7~-7----------------|
D|-7h9p7h9p(etc.)-9---------------------------------9------9-9-7-------------|
A|--------------------------------------------------------------10-9-10-9-5/7|
E|---------------------------------------------------------------------------|
           C        D
e|------------------------------------|
B|---------12----12-------------------|
G|---------14b16r14-12--12--------12--|
D|--------------------14--14-12h14----|
A|-7\5-5/7----------------------------|
E|------------------------------------|

VERSE II (Same as VERSE I, guitar 2 lines not displayed for clarity)
    Em                                                   C D
    Lift that heavy heart high above all the hungry dogs
    Em                                                C D
    And the thunderous veins that run away with it all
    Em                                                     C D
    Feel it in your bones as the wolves surround our homes
    Em                                           C D
    And the violent storm makes its way to the coast

TO CHORUS II (Same as TO CHORUS I, guitar lines not displayed for clarity)
    Am(x02210)    Am/G(302210) Am/F#(202210)
    With or   without   the    sun we'll grow
    Am         Am/G Am/F#
    Rise above winter's deep hole

FREAKOUT (This part is just weird, okay, and it's time to get compression on again, as 
well as the fuzz. It's probably best to get a buddy on the drums to help you. No, I don't 
have one either)
    Part 1 (rpt. 6) Part 2  Part 3(rpt. 7)
    Em
e|--7-x-----|-------------|-7--x-x-x---|
B|--8-x-----|-------------|-8--x-x-x---|
G|--9-x-----|-------------|-9--x-x-x---|
D|--9-x-----|-------------|-9--x-x-x---|
A|--7h8-----|-------7-5-7-|-7--x-x-x---|
E|----x-----|-------------|------------|

    Part 4
    Em
e|---------------------------------------------------------------------------|
B|---------------------------------------------------------------------------|
G|--------------------------------------9~/11~/12-14-12h14p12-14b16~-~-~--...|
D|-----------------7~9~/11~/12~/14-12h14-------------------------------------|
A|--7-5-7--7~/9~/10----------------------------------------------------------|
E|---------------------------------------------------------------------------|
                     Am              B      Em Em/F# Em/G Am
e|---------------------------------------------------------------------------|
B|---------------------------------------------------------------------------|
G|..16r14--------------------------------------------------------------------|
D|-------14-14-12-14-7-------7-5-7---9------2-2-4-4-5-5-7-7--(speedpicking)--|
A|-------------------7---------------9---------------------------------------|
E|-------------------5---------------7---------------------------------------|
    Em           D                Em                           D
e|---------------------------------------------------------------------------|
B|---------------------------------------------------------------------------|
G|---------------------------------------------------------------------------|
D|---------------7-9-7-10-7-9-7\5----------------------------9-10-10-12-12-12|
A|--7~-10-9-9-10------------------7b9r7-5-7~--7-10-9-9-10-12-----------------|
E|---------------------------------------------------------------------------|
    Em         D (bend-release to 15, not 14!)    Am
e|---------------------------------------------------------------------------|
B|--12-----------------------------------------------------------------------|
G|--14b16~-~-~-b16r15-12h14-p12h14p12-------14b16-r14-12-------12------------|
D|------------------------------------14-12--------------12-14---------------|
A|---------------------------------------------------------------------------|
E|---------------------------------------------------------------------------|
    Em         D Am
e|----------------------|
B|----------------------|
G|----------------------| (speedpicked)
D|--10-9-7-5-7-4-5------|
A|-----------------11\2-|
E|----------------------|

CHORUS III (Acoustic ending)
    Em
    We all need a reason
    D               Am
    Why we hold our breaths
    Em                                D             Am
    Fill our dreams with sunny skies, so we'll rise again
    Em                        D                Am
    Breathe in the humid air, exhale the black smoke
    Em
    We all need a reason
    D               Am       Em
    Why we take the time, to wonder


************************************

| /   slide up
| \   slide down
| h   hammer-on
| p   pull-off
| ~   vibrato
| +   harmonic
| x   Mute note
| b   Bend
| pb  Pre-bend
| br  Bend release
| pbr Pre-bend release
| brb Bend release bend

************************************
Добавлено: 02.05.2012
Другие материалы по этой песне:
  • Аккорды и текст

Страница создана 02.05.2012
http://primanota.ru/sleepy-sun/wild-machines-chords.htm
Привет, Гость.
Предлагаем пройти революционный курс по гитаре.
Подарок от PrimaNota.Ru, забирай!