PrimaNota.ru - самый крупный в мире бесплатный архив песенных текстов, аккордов, табулатур и нот


Sleepy Sun - Siouxsie Blaqq - таба, видео

Регистрация Запомнить меня
Войти через:  Facebook Google Twitter Vk Yandex Mail.ru

Sleepy Sun - Siouxsie Blaqq - таба, видео

Печатать
Просмотров: 163
Уроки эстрадного вокала в Санкт-Петербурге
Sleepy Sun - Siouxsie Blaqq

> drop-D tuning <



INTRO

- drum intro, then the bass kicks in, and then the guitar:

e|-8/10--10---8/10---12-\-8-\-5-------3p2--3/5--------------------------------------------|
B|-8/10--10---8/10---12-\-8-\-3-------1----1/3--------5-------7----------10---------12----|
G|-5/7---7----5/7----9--\-5-\-2-------0----0/2------6---6-7-----7-----11----11-12------12-|
D|-0-----0----0------0----0---0-------0----0-0--------------------------------------------|
A|-0-----0----0---------------0-------0------0--------------------------------------------|
D|-0---0------0----0----------0-------0------0--------------------------------------------|
         
  |-------------------------------------------|
          ^ 
          |
VERSE 1 (this part of riff continues in verses)
D5
Magic eye reach into my bag
                      Csus2          G/B  D5
Out of the blue comes siouxsie blaqq
       D5
Keep a steady gaze while our paths align
                             Csus2           G/B  D5
Minding the wheel, I see the end of the line


CHORUS
Csus2                 G/B                   D    
Where are you off to, when did you get off track?
Csus2                    G/B                       D
Where did you get yours, where did you learn your tact?


VERSE 2
D5
Ramble on, so they don't catch on
                        Csus2          G/B  D5
Better to run than be a stepping stone


CHORUS
Csus2                G/B               D
Tell me your secret, tell me before I ask
Csus2                    G/B                       A
Where did you get yours, where did you learn your tact?


BREAK

   Dmaj7                 G/D                  F/D                  G/D

e|---------9--------------------10--------------------8--------------------10------------|
B|---10--------10----10---12---------12----12---10--------10----10---12---------12----12-|
G|------11--------11---------12---------12---------10--------10---------12---------12----|
D|-0---------0----------0----------0----------0---------0----------0----------0----------|
A|---------------------------------------------------------------------------------------|
D|---------------------------------------------------------------------------------------|

   Dmaj7                Ddim7             Em/D             G/D                     

e|---------9-------------------7----------------7---------(3)-----|
B|---10--------10----10---9--------9----9---8-------8---8-(3)-----|
G|------11--------11--------10-------10-------9-------9----4------|
D|-0---------0----------0--------0--------0-------0--------0------|
A|----------------------------------------------------------------|
D|----------------------------------------------------------------|


REPEAT INTRO


VERSE 3
  D5
Insidious ways I can admire
                                 Csus2           G/B  D5
Out on the street you're blowing breaths of fire


CHORUS
Csus2                 G/B                   D
Where are you off to, when did you get off track?
Csus2                    G/B                       A
Where did you get yours, where did you learn your tact?


OUTRO

          Dmaj7                 G/D                  F/D                  G/D

       e|---------9--------------------10--------------------8--------------------10------------|
       B|---10--------10----10---12---------12----12---10--------10----10---12---------12----12-|
       G|------11--------11---------12---------12---------10--------10---------12---------12----|
gt.1   D|-0---------0----------0----------0----------0---------0----------0----------0----------|
       A|---------------------------------------------------------------------------------------|  \
       D|---------------------------------------------------------------------------------------|   \
                                                                                                    x2
     e|----------------------------------------------------------------|                            /
     B|----------------------------------------------------------------|                           /
     G|----------------------------------------------------------------|
gt.2 D|----------------------------------------------------------------|
solo)A|-3/5----------------------------------------3/5-----------------|
     D|----------------------------------------------------------------|


Dmaj7 G/D  F/D       G/D
Oh         colorful ideals x2

Dmaj7 G/D \
F/D   G/D / x2


SOLO (over the same chords)

     e|---------------------------------------------------------------|                     
     B|---------------------------------------------------------------|                    
     G|-------------------7-7-7-7-7-7-7-7-7-7-7-5-5-4-4--4hbr--4hbr---| hbr = half-bend, release
gt.2 D|-------------------------------------------------------------7-|
solo)A|-5-5-5-5-5-5-5-5-5---------------------------------------------| x2
     D|---------------------------------------------------------------|


Dmaj7 G/D  F/D       G/D
Oh         colorful ideals x2


   Dmaj7                Ddim7             Em/D             G                  

e|---------9-------------------7----------------7-----------------|
B|---10--------10----10---9--------9----9---8-------8---8--3------|
G|------11--------11--------10-------10-------9-------9----4------|
D|-0---------0----------0--------0--------0-------0--------0------|
A|----------------------------------------------------------------|
D|---------------------------------------------------------5------|
   s    l    o    w        d    o    w    n


















Добавлено: 04.05.2015
Другие материалы по этой песне:
  • Аккорды и текст

Страница создана 04.05.2015
http://primanota.ru/sleepy-sun/siouxsie-blaqq-chords.htm
Привет, Гость.
Предлагаем пройти революционный курс по гитаре.
Подарок от PrimaNota.Ru, забирай!