PrimaNota.ru - самый крупный в мире бесплатный архив песенных текстов, аккордов, табулатур и нот


Sleeping With Sirens - Scene One - James Dean & Audrey Hepburn - таба, видео

Регистрация Запомнить меня
Войти через:  Facebook Google Twitter Vk Yandex Mail.ru

Sleeping With Sirens - Scene One - James Dean & Audrey Hepburn - таба, видео

Печатать
Просмотров: 283
Уроки эстрадного вокала в Санкт-Петербурге
Hello! I couldn't really find a decent and accurate tab on here... so here's a version I got and fixed up a 
little bit from YouTube.

Here's the link if you wanna watch it: 

https://www.youtube.com/watch?v=I3_XVaKs-gk

-------------------------------------------------------------------------------
       SCENE ONE - JAMES DEAN AND AUDREY HEPBURN - Sleeping With Sirens 
-------------------------------------------------------------------------------
Tabbed by: MrsDrewIngle

Tuning: it's similar to Open D, but instead of the 3rd string being F#, it's a G
E -> D
A -> A
D -> D
G -> G
B -> A
e -> d

Intro:
 "Stay..""dreams.." "away"  "can't""can't""here"
d|--0--------0---------0--------0-----0-----0~--| 
A|--0--------0---------0--------0-----0-----0~--| 
G|--7--------0---------7--------0-----6-----7~--|
D|--0--------0---------0--------0-----0-----0~--|
A|--9--------5---------9--------5-----7-----9~--|
D|--9--------5---------9--------5-----7-----9~--|

Verse 1: 
    "how"  "sing""song"   "beauty"
  "me"    "beast" "me"    "since.."
d|--0-------0-0----0-------0-0-0-0--------0~----|
A|--0-------0-0----0-------0-0-0-0--------0~----|
G|--7-------6p0----4-------6-6-0-0-TWICE--7~----|
D|--0-(7x)--0-0----0-(4x)--0-0-0-0--------0~----|
A|--9-------7-7----5-------7-7-7-7--------9~----|
D|--9-------7-7----5-------7-7-7-7--------9~----|
   
Chorus:
  "They""forever""need""stay"
  "Cant""broken""leave""stay"     "if" "if""show"
d|--0------0------0------0----------0----0--0---|
A|--0------0------0------0----------0----0--0---|
G|--0------0------7------6----------7----0--6---|
D|--0------0------0------0---TWICE--0----0--0---|
A|--2------5------9------7----------9----5--7---|
D|--2------5------9------7----------9----5--7---|

Verse 2: 
  "It"  "made" "and I"   "my bed"
"And I" 2nd"everything""me""This could"
d|--0--------0-0-------0-------0-0-0-0--------0~----|
A|--0--------0-0-------0-------0-0-0-0--------0~----|
G|--7--------6p0-------4-------6-6-0-0-TWICE--7~----|
D|--0-(7x)---0-0-------0-(4x)--0-0-0-0--------0~----|
A|--9--------7-7-------5-------7-7-7-7--------9~----|
D|--9--------7-7-------5-------7-7-7-7--------9~----|

Chorus:
  "They""forever""need""stay"
  "Cant""broken""leave""stay"     
d|--0------0------0------0---------|
A|--0------0------0------0---------|
G|--0------0------7------6---------|
D|--0------0------0------0---TWICE-|
A|--2------5------9------7---------|
D|--2------5------9------7---------|

Bridge: 
"The way""are""reason"
  "long" "with""know"
d|--0------0-----0-----------------------------|
A|--0------0-----0-----------------------------|
G|--0------0-----x-----------------------------|
D|--0------0-----0-------EIGHT TIMES-----------|
A|--2------5-----0-----------------------------|
D|--2------5-----0-----------------------------|

Chorus:
  "They""forever""need""stay"
  "Cant""broken""leave""stay"
"if you""show"       "please stay"
"if you""show"       "please stay..."     "...need"
d|--0------0-------0-----0----------------------0~-|
A|--0------0-------0-----0----------------------0~-|
G|--0------0-------7-----6----------------------0~-|
D|--0------0-------0-----0-----FOUR TIMES-------0~-|
A|--2------5-------9-----7----------------------5~-|
D|--2------5-------9-----7----------------------5~-|

************************************

| /   slide up
| \   slide down
| h   hammer-on
| p   pull-off
| ~   vibrato
| +   harmonic
| x   Mute note
| b   Bend
| pb  Pre-bend
| br  Bend release
| pbr Pre-bend release
| brb Bend release bend

************************************

I don't really know how to explain the strumming pattern, but if you watch the linked video at the top of the 
tab and listen to the song, it may help you. (:
If you have any questions or corrections, feel free to put them in the comment section.
Thanks!
Добавлено: 23.08.2015
Другие материалы по этой песне:
  • Аккорды и текст

Страница создана 23.08.2015
http://primanota.ru/sleeping-with-sirens/scene-one-james-dean-and-audrey-hepburn-chords.htm
Привет, Гость.
Предлагаем пройти революционный курс по гитаре.
Подарок от PrimaNota.Ru, забирай!