PrimaNota.ru - самый крупный в мире бесплатный архив песенных текстов, аккордов, табулатур и нот


Sleeping At Last - From The Ground Up - текст песни, таба, видео

Регистрация Запомнить меня
Войти через:  Facebook Google Twitter Vk Yandex Mail.ru

Sleeping At Last - From The Ground Up - текст песни, таба, видео

Печатать
Просмотров: 88
This is my first tab, and I apologize if the timing is slightly off. You can find the 
proper timing by playing
along to the song.
This tab is meant for a ukulele, but if you would like to play it on a guitar, put the 
capo on fret 5 and play
only the first 3 strings (you don't use the fourth at all). Hope you like it!! :)


A|--------5--2----0--2----------5--2----0--2----------5--2----0--2----------5--2----0--2-|
C|--------------3--------------------3----------------------3--------------------3-------|
E|----2--------------------2----------------------4---------------------4----------------|
G|---------------------------------------------------------------------------------------|

A|--------5--2---0--2----------5--2---0--2--0-------5--2---0--2----------5--2---0--2------|
C|------3--------------------3----------------3---3--------------------3--------------3---|
E|----2-------------------2---------------------4--------------------4--------------------|
G|----------------------------------------------------------------------------------------|

A|--------5--2---0--2----------5--2---0--2--0-------5--2---0--2----------5--2---0--2------|
C|------3--------------------3----------------3---3--------------------3--------------3---|
E|----2-------------------2---------------------4--------------------4--------------------|
G|----------------------------------------------------------------------------------------|

A|--------5--2---0--2--5--2--------5--2---0--2--0-------5--2---0--2----------5--2---0--2------|
C|------3------------------------3----------------3---3--------------------3--------------3---|
E|----2-----------------------2---------------------4--------------------4--------------------|
G|--------------------------------------------------------------------------------------------|

A|--------5--2----0--2-----------0-----------0--------5--2----0--2----------5--2----0--2-|
C|--------------3------------0h3---------0h3----------------3--------------------3-------|
E|----2--------------------2-----------2----------2---------------------2----------------|
G|---------------------------------------------------------------------------------------|
      X***
A|--------5--2---0--2----------5--2---0--2--0--------5--2---0--2----------5--2---0--2--0---|
C|------3--------------------3----------------3---3--------------------3-----------------3-|
E|----4--------------------4--------------------2-------------------2----------------------|
G|-----------------------------------------------------------------------------------------|
      P****                                     P****
A|--------5--2---0--2----------5--2---0--2--0------5--2----0--2-----------0-----------0---|
C|------3--------------------3----------------3----------3-----------0h3---------0h3------|
E|----4--------------------4--------------------2------------------2-----------2----------|
G|----------------------------------------------------------------------------------------|
      P****                                     X***
A|--------5--2---0--2----------0------------0---------5--2---0--2----------0-----------0---|
C|-------------3-----------0h3---------0h3-----------------3-----------0h3---------0h3-----|
E|----2------------------2-----------2------------2------------------2-----------2---------|
G|-----------------------------------------------------------------------------------------|
     X***                                         X***
     P****
A|--------5--2---0--2----------0------------0---------5--2---0--2---------5--2---0--2---|
C|-------------3-----------0h3---------0h3-----------------3-------------------3--------|
E|----2------------------2-----------2------------2------------------2------------------|
G|--------------------------------------------------------------------------------------|
      X***
      P****
A|--------5--2---0--2----------5--2---0--2--0--------5--2---0--2----------5--2---0--2--0---|
C|------3--------------------3----------------3---3--------------------3-----------------3-|
E|----4--------------------4--------------------2-------------------2----------------------|
G|-----------------------------------------------------------------------------------------|
      P****                                     P****
A|--------5--2---0--2----------5--2---0--2--0--------5--2---0--2----------5--2---0--2--0---|
C|------3--------------------3----------------3---3--------------------3-----------------3-|
E|----4--------------------4--------------------2-------------------2----------------------|
G|-----------------------------------------------------------------------------------------|
      P****                                     P****
A|--------5--2---0--2----------5--2---0--2--0--------5--2--|
C|------3--------------------3----------------3---3--------|
E|----4--------------------4--------------------2----------|
G|---------------------------------------------------------|
      P****                                     P****


So that's the main picking of the song, but through most of it there's a
A|----------------------------------------------------------------------------------------------------|
C|-------3-----3-----3-----3-----3-----3-----3-----3-----3-----3-----3-----3-----3-----3-----3-----3--|
E|----2-----2-----2-----2-----2-----2-----2-----2-----2-----2-----2-----2-----2-----2-----2-----2-----|
G|----------------------------------------------------------------------------------------------------|
that plays in the background. If you have multiple people playing at the same time, it 
sounds quite nice.**
**NOTE: the 2 on the E string changes to a 4 with the main picking**
A|----------------------------------------------------------------------------------------------------|
C|-------3-----3-----3-----3-----3-----3-----3-----3-----3-----3-----3-----3-----3-----3-----3-----3--|
E|----4-----4-----4-----4-----4-----4-----4-----4-----4-----4-----4-----4-----4-----4-----4-----4-----|
G|----------------------------------------------------------------------------------------------------|
This basically just matches with the main picking changes.

X***: the X stands for a small amount of piano; the notes D F E C A C G F A
P****: this stands for a very small amount of extra finger picking that you need a 
second person for
A|-------------------|
C|---0--3--0--3--0---|
E|-------------------|
G|-------------------|

Hope you all like it!! :)
Добавлено: 19.03.2016
Другие материалы по этой песне:
  • Аккорды и текст

Страница создана 07.11.2014
http://primanota.ru/sleeping-at-last/from-ground-up-chords.htm
Привет, Гость.
Предлагаем пройти революционный курс по гитаре.
Подарок от PrimaNota.Ru, забирай!