PrimaNota.ru - самый крупный в мире бесплатный архив песенных текстов, аккордов, табулатур и нот


Sleep Party People - In Another World - таба, видео

Регистрация Запомнить меня
Войти через:  Facebook Google Twitter Vk Yandex Mail.ru

Sleep Party People - In Another World - таба, видео

Печатать
Просмотров: 290
Уроки эстрадного вокала в Санкт-Петербурге
Авторы музыки: Brian Batz

In another world (intro) - Sleep Party People

Tuning: Standard

CAPO on 6
All notes relative to the CAPO

e|---------------------------------------------------------------------------|
B|---------------------------------------------------------------------------|
G|---------------------------------------------------------------------------|
D|---------------------------------------------------------------------------|
A|---1~--4--3~-----1~--4--3~-----0~--3--2~-----0~--3--2~---------------------|
E|-1-------------1-------------0-------------0-------------------------------|

Bending the notes once in a while can help it sound more accurate

I believe the background part is

e|---------------------------------------------------------------------------|
B|---------------------------------------------------------------------------|
G|---------------------------------------------------------------------------|
D|-----2---2-------0---0-----------------------------------------------------|
A|---2---2---2---0---0---0---------------------------------------------------|
E|-0-----------0-------------------------------------------------------------|
Добавлено: 09.08.2015
Другие материалы по этой песне:
  • Аккорды и текст

Страница создана 09.08.2015
http://primanota.ru/sleep-party-people/in-another-world-chords.htm
Привет, Гость.
Предлагаем пройти революционный курс по гитаре.
Подарок от PrimaNota.Ru, забирай!