PrimaNota.ru - самый крупный в мире бесплатный архив песенных текстов, аккордов, табулатур и нот


Sleep Party People - I See The Moon Feat Lisa Light - бас-таба, видео

Регистрация Запомнить меня
Войти через:  Facebook Google Twitter Vk Yandex Mail.ru

Sleep Party People - I See The Moon Feat Lisa Light - бас-таба, видео

Печатать
Просмотров: 56
-------------------------------------------------------------------------------
             I see the Moon (feat. Lisa Light) - Sleep Party People
-------------------------------------------------------------------------------
Tabbed by: Oziel Esparza
E-mail: oclictis1@gmail.com

Tuning: Standard

This is how it's played live by Lisa Light

G|---------------------------------------------------------------------------|
D|---------------------------------------------------------------------------|
A|---------12-14-----------12-14--------12-14---------12-14------------------|
E|-12-12-----------12-12------------12---------12-12-------------------------|

G|---------------------------------------------------------------------------|
D|---------------------------------------------------------------------------|
A|---------12-14-----------12-14---------12-14----------12-14----------------|
E|-12-12-----------12-12-----------12-12---------12-12-----------------------|

That's played pretty much throughout the whole thing, throw in a couple of single E's
on the E string (12th fret) once in a while rather than hitting it twice and you're golden

Variations

Play these parts steccato, mute often

(0:55)

G|---------------------------------------------------------------------------|
D|---------------------------------------------------------------------------|
A|--------11-12-14-----------------------------------------------------------|
E|-10--12--------------12--10---9-10-11-12-----------------------------------|

G|---------------------------------------------------------------------------|
D|---------------------------------------------------------------------------|
A|-------11-12-14------------------------------------------------------------|
E|-10--12-----------14-14--14-14---14-----14-14--14-14---14------------------|

G|---------------------------------------------------------------------------|
D|---------------------------------------------------------------------------|
A|---------------------------------------------------------------------------|
E|-12-12--12-12---12---------------------------------------------------------|

G|---------------------------------------------------------------------------|
D|---------------------------------------------------------------------------|
A|--------11-12-14-----------------------------------------------------------|
E|-10--12-------------10-12~-12-10-12----------------------------------------|

Note: I'm actually not sure how the 10 12 12 10 12 bit is actually supposed to go
It doesn't sound accurate but I cannot find any other way for it to work

G|---------------------------------------------------------------------------|
D|---------------------------------------------------------------------------|
A|--------11-12-14-----------------------------------------------------------|
E|-10--12--------------12--10---9-10-11-12-----------------------------------|

G|---------------------------------------------------------------------------|
D|---------------------------------------------------------------------------|
A|--------11-12-14-----------------------------------------------------------|
E|-10--12-------------10-12~-12-10-12----------------------------------------|

G|---------------------------------------------------------------------------|
D|---------------------------------------------------------------------------|
A|--------11-12-14-----------------------------------------------------------|
E|-10--12--------------12--10---9-10-11-12-----------------------------------|

G|---------------------------------------------------------------------------|
D|---------------------------------------------------------------------------|
A|--------11-12-14-----------------------------------------------------------|
E|-10--12-------------10-12~-12-10-12----------------------------------------|

G|---------------------------------------------------------------------------|
D|---------------------------------------------------------------------------|
A|--------11-12-14-----------------------------------------------------------|
E|-10--12--------------12--10---9-10-11-12-----------------------------------|

Repeat these two phrases until

(2:17)

G|---------------------------------------------------------------------------|
D|---------------------------------------------------------------------------|
A|---------------------------------------------------------------------------|
E|-12--10---9-10-11-12-----12--10---9-10-11-12-------------------------------|

Repeat this throughout Lisa's reverbed and indecipherable vocals until

(3:07)

G|---------------------------------------------------------------------------|
D|---------------------------------------------------------------------------|
A|--------11-12-14-----------------------------------------------------------|
E|-10--12-------------10-12~-12-10-12----------------------------------------|

G|---------------------------------------------------------------------------|
D|---------------------------------------------------------------------------|
A|--------11-12-14-----------------------------------------------------------|
E|-10--12--------------12--10---9-10-11-12-----------------------------------|

G|---------------------------------------------------------------------------|
D|---------------------------------------------------------------------------|
A|---------------------------------------------------------------------------|
E|-12--10---9-10-11-12-----12--10---9-10-11-12-------------------------------|

G|---------------------------------------------------------------------------|
D|---------------------------------------------------------------------------|
A|---------------------------------------------------------------------------|
E|-12--10---9-10-11-12-----12--10---9-10-11-12-------------------------------|

Repeat that bit again through "I see the moon, I see it!" until (4:25) where a second track
is no longer played until

(4:47)

G|---------------------------------------------------------------------------|
D|---------------------------------------------------------------------------|
A|--------------------------------11-12-14-----------------------------------|
E|-12--10---9-10-11-12-----10--12--------------------------------------------|

G|---------------------------------------------------------------------------|
D|---------------------------------------------------------------------------|
A|--------------------------------11-12-14-----------------------------------|
E|-10-12~-12-10-12---------10--12--------------------------------------------|

G|---------------------------------------------------------------------------|
D|---------------------------------------------------------------------------|
A|---------------------------------------------------------------------------|
E|-12--10---9-10-11-12-----12--10---9-10-11-12-------------------------------|

G|---------------------------------------------------------------------------|
D|---------------------------------------------------------------------------|
A|---------------------------------------------------------------------------|
E|-12--10---9-10-11-12-----12--10---9-10-11-12-------------------------------|

Repeat those last two phrases again until you stop at (6:17) and continue at

(6:27)

G|---------------------------------------------------------------------------|
D|---------------------------------------------------------------------------|
A|---------------------------------------------------------------------------|
E|-10--14/10-----10--14/10-----10--14/10-----10--14/10-----------------------|
(/ meaning slide)

Throw these in once in a while. At (7:14) the bass tracks stop.

Of course, there's more tracks (like the one that harmonizes with the main, repeating bassline) but those
are for another day, I suppose. Also, if anyone can figure out the proper way to do the thing I pointed
out then it'd be rad!
Добавлено: 26.12.2015
Вам также может быть интересно:
Другие материалы по этой песне:
  • Аккорды и текст

Страница создана 26.12.2015
http://primanota.ru/sleep-party-people/i-see-moon-feat-lisa-light-chords.htm
Привет, Гость.
Предлагаем пройти революционный курс по гитаре.
Подарок от PrimaNota.Ru, забирай!