PrimaNota.ru - самый крупный в мире бесплатный архив песенных текстов, аккордов, табулатур и нот


Sleater-kinney - Price Tag - таба, видео

Регистрация Запомнить меня
Войти через:  Facebook Google Twitter Vk Yandex Mail.ru

Sleater-kinney - Price Tag - таба, видео

Печатать
Просмотров: 77
Авторы: Sleater‐Kinney

-------------------------------------------------------------------------------
                             Price Tag - Sleater-Kinney
-------------------------------------------------------------------------------
Tabbed by: TatumHalla

This is What Corin plays throughout the song, I couldn't figure out Carrie's part

Verse  
e|---------------------------------------------------------------------------|
B|---------------------------------------------------------------------------|
G|---------------------------------------------------------------------------|
D|-------8-9-10-10------8-9-10-10--------------------------------------------|
A|---8------------8--------------------10-11-12-12-----6-7-8-8---------------|
E|-------------------------------10---------------6--------------------------|

Chorus 
e|---------------------------------------------------------------------------|
B|---------------------------------------------------------------------------|
G|---------------------------------------------------------------------------|
D|---------------------------------4-5-6-6------4-5-6-6----------------------|
A|-------1-2-3-3-----1-2-3-3--4-----------4----------------------------------|
E|---1----------1------------------------------------------------------------|

Bridge 
e|---------------------------------------------------------------------------|
B|---------------------------------------------------------------------------|
G|---------------------------------------------------------------------------|
D|---------------------------5-5-5-5-----------------------------------------|
A|----8-8-8-8-8-8-8-8-4-4-4-4------------------------------------------------|
E|---------------------------------------------------------------------------|

Lyrics
------------------------
          Verse
------------------------
The bells go off    
The buzzer coughs
The traffic starts to buzz
The clothes are stiff
The fabrics itch
The fit's a little rough
But I suck it in
To every stitch
Try to fit inside the glove
I scramble eggs
For little legs
The day's off in a rush



-----------------------
        Verse
-----------------------
It's 9am
We must clock in
The system waits for us
I stock the shelves
I work the rows
The products all light up
If I could flip the switch
The system fix
I could move us to the top
The numbers roll
It's time to go
I'm never fast enough



----------------------  
       Chorus
----------------------
We never really checked
We never really check the price tag
When the cost comes in
It's gonna be high
We love our bargains
We love the prices so low
With the good jobs gone
It's gone be raw



-----------------------
        Verse
-----------------------
In the market
The kids are starving
They reach for the good stuff
Let's stay off the label
Just till we're able
To save a little up
The next big win
The ship comes in
No more worry for us
Just keep moving
The wheels keep turning
It's time to go pay up



-------------------------
        Chorus
-------------------------



-------------------------
        Bridge
-------------------------
I was lured by the devil
I was lured by the cause
I was lured by the fear
That all we had was lost
I was blind by the money
I was numb from the greed
I'll take God when I'm ready
I'll choose sin till I leave



----------------------------
           Chorus
----------------------------


This is just what I got from listening to the song and I'm sure it's not 100% correct 
so feel free to add corrections
Добавлено: 10.11.2015
Другие материалы по этой песне:
  • Аккорды и текст

Страница создана 10.11.2015
http://primanota.ru/sleater-kinney/price-tag-chords.htm
Привет, Гость.
Предлагаем пройти революционный курс по гитаре.
Подарок от PrimaNota.Ru, забирай!