PrimaNota.ru - самый крупный в мире бесплатный архив песенных текстов, аккордов, табулатур и нот


Sleater-kinney - One Beat - аккорды и текст, видео

Регистрация Запомнить меня
Войти через:  Facebook Google Twitter Vk Yandex Mail.ru

Sleater-kinney - One Beat - аккорды и текст, видео

Печатать
Просмотров: 110
Уроки эстрадного вокала в Санкт-Петербурге
One Beat
Sleater-kinney
just messing about by ear and not sure about proper 
chord names so corrections encouraged!
i also included the lyrics because it's always annoying as a singer when they're not there.

but yeah hopefully these at least marginally work.


guitar 1 - chords/corin
guitar 2 - tab/carrie


chords:
D    x577xx
F#m   244xxx
D7   x5x7xx
E7   x7x9xx
A9   xx7x9x
G#9  xx6x8x



GUITAR 2

VERSES/BRIDGE


|----------------|----------------|------------------|-------------2--|
|----------------|----------------|--------~-2-0-----|----------------|
|----------------|----------------|------------------|----------------|
|----------------|----------------|---------------2--|--4-4-4-4-4-----|
|----------------|----------------|------------------|----------------|
|----------------|----------------|------------------|----------------|

|----------------|-------------2--|------------------|-------------2--|
|----------------|----------------|--------0-2-0-----|----------------|
|--2-2-2-2-2--4--|----------------|--2-2-2-----------|----------------|
|----------------|--4-4-4-4-4-----|---------------2--|--4-4-4-4-4-----|
|----------------|----------------|------------------|----------------|
|----------------|----------------|------------------|----------------|
   
   (i'm a...)
|----------------|-------------2--|------------------|-------------2--|
|----------------|----------------|--------0-2-0-----|----------------|
|--2-2-2-2-2--4--|----------------|--2-2-2-----------|----------------|
|----------------|--4-4-4-4-4-----|---------------2--|--4-4-4-4-4-----|
|----------------|----------------|------------------|----------------|
|----------------|----------------|------------------|----------------|

just repeat those four bars until the end of the verse. 
the first line of the verses/after the bridge always starts with the 0-2-0 bar.
that's really the only thing different. hopefully that makes sense. can't do words. :)


CHORUS

|--------------|----------------------|--------------|-------------------|
|--------------|----------------------|--------------|-------------------|
|--------------|----------------------|--------------|-------------------|
|--4-4-4-4--4--|--0-0--2-2------------|--4-4-4-4--4--|--0-0-2-2----------|
|--------------|------------4-4--2-2--|--------------|----------4-4-2-2--|
|--------------|----------------------|--------------|-------------------|





GUITAR 1

D  F#m x4


      D           F#m
i'm a bubble in a sound wave
  D              F#m
a sonic push for energy
  D                F#m
exploding like the sun
  D                    F#v
a flash of clean white hope
        D              F#m
all you scientists can hold your breath
    D           F#m
can i decide to show myself? 

oh oh

D        

F#m                             D                   F#m
(take me to the source of chaos let me be the butterfly
   D  F#m                    D                     F#m
oh my imperfect symmetry has underlying poetry in  rhyme)

       D                 F#m
if you think like thomas edison
      D            F#m
could you invent a world for me
    D                 F#m
now all that's on the surface
    D               F#m
are bloody arms and oil fields
        D               F#m
could i turn this place upside down
    D                  F#m
    shake you and your fossils out

oh oh

D

     F#m                            D                    F#m
(you can't predict everything with newton like certainty why?
  D           F#m                            D                    F#m  (E)
i-i 'cause it floats around all we see with oscillating energy on high


F#m                D7 E7 A9 G#9
and you soothe yourself 
F#m                D7 E7 A9 G#9
with a sound you know
F#m       D7 E7 A9 G#9
you tune out 
F#m            D7 E7 A9 G#9
the hypnotic drone
F#m          D7 E7 A9 G#9 
perfect hexagon 
F#m          D7 E7 A9 G#9
of the honeycomb
F#m                 D7 E7 A9 G#9
and you soothe yourself 
F#m
with the shapes you know

         D                F#m
Should I come outside and run your cars
         D                F#m
Should I run your rockets to the stars
      D            F#m
Could you invent a world for me
  D              F#m
I need to hear a symphony
   D              F#m
If I'm to run the future
       D              F#m
You've got to let the old world go

oh oh

D

F#m                             D                   F#m
(take me to the source of chaos let me be the butterfly
   D  F#m                    D                     F#m
oh my imperfect symmetry has underlying poetry in  rhyme)



F#m                D7 E7 A9 G#9
and you soothe yourself 
F#m                D7 E7 A9 G#9
with a sound you know
F#m       D7 E7 A9 G#9
you tune out 
F#m            D7 E7 A9 G#9
the hypnotic drone
F#m          D7 E7 A9 G#9 
perfect hexagon 
F#m          D7 E7 A9 G#9
of the honeycomb
F#m                 D7 E7 A9 G#9
and you soothe yourself 
F#m
with the shapes you know

     D              F#m
Your word for me is fusion
       D              F#m
But is real change an illusion
        D                   F#m
Could I turn this place all upside down
    D                  F#m
And shake you and your fossils out

   D              F#m
If I'm to run the future
       D              F#m
You've got to let the old world go
      D            F#m
Could you invent a world for me
  D              F#m
I need to hear a symphony

oh oh

D  F#m x4
Добавлено: 26.04.2014
Другие материалы по этой песне:
  • Аккорды и текст

Страница создана 01.12.2013
http://primanota.ru/sleater-kinney/one-beat-chords.htm
Привет, Гость.
Предлагаем пройти революционный курс по гитаре.
Подарок от PrimaNota.Ru, забирай!