PrimaNota.ru - самый крупный в мире бесплатный архив песенных текстов, аккордов, табулатур и нот


Slayer - War Ensemble - аккорды и текст, таба, бас-таба, драм-таба, видео

Регистрация Запомнить меня
Войти через:  Facebook Google Twitter Vk Yandex Mail.ru

Slayer - War Ensemble - аккорды и текст, таба, бас-таба, драм-таба, видео

Печатать
Просмотров: 471
Авторы музыки: Jeff Hanneman
Авторы текста: Tom Araya, Jeff Hanneman
War Ensemble
Slayer
Not all the riffs are here in certain order, I left the solo
rhythm out since there is no point in it yet.
TIMING IS WAY OFF. If you're a slayer fan, You'll know these
riffs when you start to play em.
Tune down 1/2 step
 
P.M.-- = Palm Mute
p = Pull Off

riff a   P.M.--      ------      ----       -------
[Eb-------------------------------------------------------------
Bb-------------------------------------------------------------
Gb-------------------------------------------------------------
Db--------------------------------------------------8--5-------
Ab--------------------------------------------------8--5-------
Eb-3p1p0-0-0-0-3p1p0-0-0-0-3p1p0-0--0-0-3p1p0-0-0-0-6--7-------]

P.M.----------------------
[Eb--------------------------------------------------------------
Bb--------------------------------------------------------------
Gb--------------------------------------------------------------
Db--------------------------------------------------------------
Ab-------2--1---------------------------------------------------
Eb-0--3-------0--3--2--1----------------------------------------]
Riff B
P.M.  -      -      -            -       -      -
[Eb--------------------------------------------------------------
Bb--------------------------------------------------------------
Gb--------------------------------------------------------------
Db---------------------------------5-4----6-5----9-8--8--------
Ab----5-4----6-5----9-8---8-2-0--3-2--0-4-3--0-7-6--6--------
Eb--0-3-2--0-4-3--0-7-6---6-0---------------------------------]

P.M. -----   -----   -   -----   -----   -----   -----   -----
[Eb--------------------------------------------------------------
Bb--------------------------------------------------------------
Gb--------------------------------------------------------------
Db--------------------------------------------------------------
Ab-------3-------3---6-------6-------5-------5-------4-------4-
Eb--3-3-3---3-3-3---3---3-3-3---3-3-3---3-3-3---3-3-3---3-3-3---]

P.M.----    -
[Eb------------------------------------------------------------
Bb------------------------------------------------------------
Gb------------------------------------------------------------
Db------------------------------------------------------------
Ab--------4--------------------2--2--2---2--2--2--2-----------
Eb-3-3-3----3------------------0--0--0---0--0--0--0-----------]
               PUT RIFF A HERE ^
RIFF-C
P.M.  -       -     -           HEAVY P.M.----------------------
[Eb--------------------------------------------------------------
Bb--------------------------------------------------------------
Gb--------------------------------------------------------------
Db--------------------------------------------------------------
Ab-2----5-4----6-5----9-8--8--2-2-2-2-2-2-2-2-2-2-2-2-2-2-2-2--
Eb-0--0-3-2--0-4-3--0-7-6--6--0-0-0-0-0-0-0-0-0-0-0-0-0-0-0-0--]
P.M.  -      --    ---         HEAVY P.M.--
[Eb--------------------------------------------------------------
Bb--------------------------------------------------------------
Gb--------------------------------------------------------------
Db-------------------------------------------------9-9-9-9-9-9-9
Ab-2----5-4----6-5----9-8--8---2-2-2-2-2-2-7-7-7-7-7-7-7-7-7-7-7
Eb-0--0-3-2--0-4-3--0-7-6--6--0-0-0-0-0-0-0-0-0-0-0-0-0-0-0-0-0]
==>RIFF B w/ "The sport is war, Total war"

P.M.------------------------------
[Eb--------------------------------------------------------------
Bb--------------------------------------------------------------
Gb--------------------------------------------------------------
Db----8-7-------------------------------------------------------
Ab----8-7-----6--5-----8-7---7-6----5--7--8---------------------
Eb--------0--6--5--0--8-7-0-7-6----3--5--6---------------------]

P.M.------------------------------
[Eb--------------------------------------------------------------
Bb--------------------------------------------------------------
Gb--------------------------------------------------------------
Db-----8-7------------------------------------------------------
Ab-----8-7----6--5-----8-7---7-6---5--8--6----------------------
Eb--------0--6--5--0--8-7-0-7-6---3--6--4----------------------]

P.M.------------------------------
[Eb--------------------------------------------------------------
Bb--------------------------------------------------------------
Gb--------------------------------------------------------------
Db-----8-7------------------------------------------------------
Ab-----8-7----6--5-----8-7---7-6----8--6--5---------------------
Eb--------0--6--5--0--8-7-0-7-6----6--4--3---------------------]
W/Lyrics "Be Dead Fiend"
P.M.-------------------------------
[Eb--------------------------------------------------------------
Bb--------------------------------------------------------------
Gb--------------------------------------------------------------
Db-----8-7------------------------------------------------------
Ab-----8-7----6--5-----8-7---7-6----3--3------------------------
Eb--------0--6--5--0--8-7-0-7-6----1--1------------------------]
     P.M--------------------------
[Eb--------------------------------------------------------------
Bb--------------------------------------------------------------
Gb--------------------------------------------------------------
Db--------------------------------------------------------------
Ab---------------------------------5-7-8-----------------------
Eb----0-0-0-0-0-0-0-0-0-0-0-0-0----3-5-6-----------------------]
     P.M--------------------------
[Eb--------------------------------------------------------------
Bb--------------------------------------------------------------
Gb--------------------------------------------------------------
Db--------------------------------------------------------------
Ab---------------------------------5-8-7-----------------------
Eb----0-0-0-0-0-0-0-0-0-0-0-0-0----3-6-5-----------------------]

     P.M--------------------------
[Eb--------------------------------------------------------------
Bb--------------------------------------------------------------
Gb--------------------------------------------------------------
Db--------------------------------------------------------------
Ab---------------------------------8-5-5-----------------------
Eb----0-0-0-0-0-0-0-0-0-0-0-0-0----6-7-3-----------------------]
     P.M--------------------------
[Eb--------------------------------------------------------------
Bb--------------------------------------------------------------
Gb--------------------------------------------------------------
Db--------------------------------------------------------------
Ab--------------------------------3-----3----------------------
Eb----0-0-0-0-0-0-0-0-0-0-0-0-0---1-----1----------------------]
W/ Third Verse Lyrics
P.M.   ------   ------ -   -----   ------  -   -----   ------
[Eb--------------------------------------------------------------
Bb--------------------------------------------------------------
Gb--------------------------------------------------------------
Db-2--------2-------2---5-------5-------5---4-------4-------4---
Ab-2--------2-------2---5-------5-------5---4-------4-------4---
Eb----0-0-0---0-0-0---0---0-0-0---0-0-0---0---0-0-0---0-0-0---0-]
P.M.  ----   ------   --
[Eb--------------------------------------------------------------
Bb--------------------------------------------------------------
Gb--------------------------------------------------------------
Db-3-------3-------3--------------------------------------------
Ab-3-------3-------3--------------------------------------------
Eb---0-0-0---0-0-0---0------------------------------------------]
RIFF C 
        
        / W/Third Chorus
RIFF B /

If Enough Requests are sent, I'll tab up the solos too.

Lyrics:		Propaganda death ensamble, burial to be
Corpse rotting through the night, In blood laced misery
Scorched earth the policy, The reason for the siege
The pendulum it shaves the blade, Strafing air blood raid

Infiltration push reserves, encircle the frontline
Supreme art of strategy playing on the minds
Bombard till submission take all to their graves
Indication of Triumph-The numbers that are dead

Chorus 1st time
Sport the war
War support
The sport is war, Total war
When victory's really massacre
The final swing is not a drill
It's how many people I can kill

Chorus 2nd time

Sport the war
War support
The sport is war, Total war
When victory's really survival
The final swing is not a drill
It's how many people I can kill

Be dead fiend from above
When darkness falls
Descend onto my sights
Your fallen walls
Spearhead break through the lines
Flanked all around
Soldier of attrition forward their ground

Regime prophetic age, old in its time
Flowing beings run on through, deep in the rhine
Center of the web, all battles scored
What is our war crimes?
Era for evermore

WAR!!

Propoganda war ensamble, Burial to be
Bones shining by the night in blood laced misery
Campaign of elimination, Twisted Psychology
When victory is to survive and death is defeat

Chorus 3rd time

Sport the war
War Support
The sport is war, Total war
When in the end is a slaughter
The final swing is not a drill
It's how many people I can kill
Добавлено: 04.12.2013
Другие материалы по этой песне:

Страница создана 06.03.2012
http://primanota.ru/slayer/war-ensemble-chords.htm
Привет, Гость.
Предлагаем пройти революционный курс по гитаре.
Подарок от PrimaNota.Ru, забирай!