PrimaNota.ru - самый крупный в мире бесплатный архив песенных текстов, аккордов, табулатур и нот


Slayer - Undisputed Attitude - таба, видео

Регистрация Запомнить меня
Войти через:  Facebook Google Twitter Vk Yandex Mail.ru

Slayer - Undisputed Attitude - таба, видео

Печатать
Просмотров: 114
----------------------------------------------------------------------------
                        UNDISPUTED ATTITUDE - Slayer
----------------------------------------------------------------------------

SONGS:

1. Disintegration/Free Money
2. Verbal Abuse/Leeches
3. Abolish Government/Superficial Love
4. Can't Stand You
5. Ddamm
6. Guilty of Being White
7. I Hate You
8. Filler/I Don't Want to Hear It
9. Sick Boy
10. Spiritual Law
11. Mr. Freeze
12. Violent Pacification
13. Richard Hung Himself
14. I'm Gonna Be Your God
15. Gemini 

---------------------------------------------------------------------------
                          Disintegration/Free Money                       
---------------------------------------------------------------------------

Intro: (Fade in)
                  Disintegration you bastard
E--------------------------|-----------------------|
B--------------------------|-----------------------|
G--------------------------|-----------------------|
D--(2)---------------------|--(2)------------------|
A--(2)---------------------|--(2)------------------|
E--(0)---------------------|--(0)------------------|

Riff 1:
E--------------------------|--------------------------|
B--------------------------|--------------------------|
G--------------------------|--------------------------|
D--9--9--9--9--2--2--2--2--|--5--5--5--5--7--7--7--7--|
A--7--7--7--7--0--0--0--0--|--3--3--3--3--5--5--5--5--|
E--------------------------|--------------------------|

Riff 2:
E--------------------------------------------|
B--------------------------------------------|
G--------------------------------------6-----|
D--------------------------------------6-----|
A--5--5--5--5--5--5--5--5--5--5--5--5--4-----|
E--------------------------------------------|

E--------------------------------------------|
B--------------------------------------------|
G--------------------------------------10----|
D--------------------------------------10----|
A--5--5--5--5--5--5--5--5--5--5--5--5--8-----|
E--------------------------------------------|

Riff 3:
E---------------------|---------------------|
B---------------------|---------------------|
G--7------------------|--7------------------|
D--5---7---9---9---9--|--5---7---9---9---9--|
A------5---7---7---7--|------5---7---7---7--|
E---------------------|---------------------|

Riff 4:
E-------------------------------------------------|
B-------------------------------------------------|
G-------------------------------------------------|
D--5---7---5---7----------------------------------|
A--3---5---3---5---7-7-7-7-7-7-7-5-7-7-7-7-7-7-7--|
E-------------------------------------------------|

Riff 5:
E---------------------|---------------------|
B---------------------|---------------------|
G---------------------|---------------------|
D--2---7---4---4---4--|--2---7---4---4---4--|
A--0---5---2---2---2--|--0---5---2---2---2--|
E---------------------|---------------------|

E---------------------|-----------------|
B---------------------|-----------------|
G---------------------|-----------------|
D--2---7---4---4---4--|--2---4---2---4--|
A--0---5---2---2---2--|--0---2---0---2--|
E---------------------|-----------------|

Songstructure:
Intro
Riff 1 (6 times)
Riff 2 (2 times)
Riff 1 (6 times)
Riff 2 (2 times)
Bass-riff
Riff 3 (2 times)
Riff 4 (2 times)
Riff 3 (2 times)
Riff 5
Riff 3 (3 times)
Riff 4 (2 times)
Riff 3 (3 1/2 times)
END


----------------------------------------------------------------------------
                             Verbal Abuse/Leeches
----------------------------------------------------------------------------

Riff 1:
E-----------------------------------------------|
B-----------------------------------------------|
G-----------------------------------------------|
D-----7--5--4-----------------------------------|
A--7--5--3--2-----------------------------------|
E--5-----------5-5-5-5-5-5-5-3-5-5-5-5-5-5-5-5--|

Riff 2:
E---------------------------------------------|
B---------------------------------------------|
G---------------------------------------------|
D--7----5-------------------------------------|
A--5----3-------------------------------------|
E------------5-5-5-5-5-5-5-3-5-5-5-5-5-5-5-5--|

Riff 3:
E---------------------------------------------|
B---------------------------------------------|
G---------------------------------------------|
D---------------------------------------------|
A--7----5-------------------------------------|
E--5----3----5-5-5-5-5-5-5-3-5-5-5-5-5-5-5-5--|

Bridge:
E-------------|
B-------------|
G-------------|
D--7-7-7-7-7--|
A--5-5-5-5-5--|
E-------------|

Riff 4:
E---------------------------------------------------|
B---------------------------------------------------|
G---------------------------------------------------|
D---------------------------------------------------|
A---------------------------------------------------|
E--5-5-5-5-5-5-5-3-5-5-5-5-5-5-5-3-5-5-5-5-5-5-5-5--|

E---------------------------|-----------------------------------|
B---------------------------|-----------------------------------|
G---------------------------|-----------------------------------|
D---------------------------|-----------------------------------|
A--5-5-5-5-3-3-3-3-3-3-3-3--|----------5-5-5-5-3-3-3-3-3-3-3-3--|
E---------------------------|--5-5-5-5--------------------------|

E-----------------------------------|-----------------------------------|
B-----------------------------------|-----------------------------------|
G-----------------------------------|-----------------------------------|
D-----------------------------------|-----------------------------------|
A----------5-5-5-5-3-3-3-3-3-3-3-3--|----------5-5-5-5-3-3-3-3-3-3-3-3--|
E--5-5-5-5--------------------------|--5-5-5-5--------------------------|

Riff 5:
E-----------------------------------|
B-----------------------------------|
G-----------------------------------|
D--4--------------2-2-2-------------|
A--2--2-2-2-2-2-2-0-0-0-5----5-5----|
E-----------------------3----3-3----|

Riff 6:
E------------------------------------|
B------------------------------------|
G------------------------------------|
D--------------------------7----5----|
A--2-2-2-2-2-2-2-2-7-7-7-7-5----3----|
E------------------------------------|

Riff 7:
E-----------------------------------|------------------------------|
B-----------------------------------|------------------------------|
G-----------------------------------|------------------------------|
D-----------------------------------|------------------4--4--4--4--|
A--5-5-5-5-5-5-5-5-7-7-7-7-7-7-7-7--|--0-0-0-0-0-0-0-0-2--2--2--2--|
E-----------------------------------|------------------------------|

Songstructure:
Riff 1 (2 times)
Riff 2 (2 times)
Riff 3 (2 times)
Riff 1
Bridge
Riff 4
Riff 1 (2 times)
Riff 2 (2 times)
Riff 3 (2 times)
Riff 1
Bridge
Riff 4
Riff 5 (4 times)
Riff 6 (4 times)
Riff 7
Riff 6 (3 times)
Riff 5 (4 times)
Riff 6 (4 times)
Riff 7
END


----------------------------------------------------------------------------
                         Abolish Government/Superficial Love
----------------------------------------------------------------------------

\=slide down
/=slide up

Riff A:
----------------------------------------------------------------------------
--------------------------------(x3)----------------------------------------
----------------------------------------------------------------------------
--14--14--14--14--14--14--14----14--14--14--15------------------------------
--14--14--14--14--14--14--14----12--12--12--13---15-------------------------
--12--12--12--12--12--12--12---------------------13-------------------------

----------------------------------------------------------------------------
----------------------------------------------------------------------------
----------------------------------------------------------------------------
--14--14--14--14--14--14--14----16--15--------------------------------------
--14--14--14--14--14--14--14----16--15--------------------------------------
--12--12--12--12--12--12--12----14--13--------------------------------------
Repeat Riff A 2 more times an octave lower, and palm mute.

Riff B:
---------------------------------------------------------------------------
---------(x4)--------------------------------------------------------------
---------------------------------------------------------------------------
--9--9--10-10---9--9--9--9--7--7-------------------------------------------
--9--9---8--8---7--7--7--7--5--7-------------------------------------------
--7--7-------------------------5-------------------------------------------

Riff C:
-----------------------------------------
---------------(x4)----------------------
-----------------------------------------
--9--9-10-10---10-10-10--11-11-11-11-----
--7--7--8--8---10-10-10--11-11-11-11-----
----------------8--8--8---9--9--9--9-----
(Riff B)
Riff D:
------------------------------------------
------------------------------------------
------------------------------------------
--9--10---7--7--7--7--7--7--7--7--7-------
--9---8---7--7--7--7--7--7--7--7--7-------
--7-------5--5--5--5--5--5--5--5--5-------

------------------------------------------
------------------------------------------
------------------------------------------
--9--10---7--7--7--7--7--7--7--7--7-------
--9---8---7--7--7--7--7--7--7--7--7-------
--7-------5--5--5--5--5--5--5--5--5-------

------------------------------------------
------------------------------------------
------------------------------------------
--9--10---7--7--7--7--7--7--7--7--7-------
--9---8---7--7--7--7--7--7--7--7--7-------
--7-------5--5--5--5--5--5--5--5--5-------

--------------------------------------------------------------------------
--------------------------------------------------------------------------
--------------------------------------------------------------------------
--9--10---7--7--7--7--7--7--7--7--7-----9--\------------------------------
--9---8---7--7--7--7--7--7--7--7--7-----9--\------------------------------
--7-------5--5--5--5--5--5--5--5--5-----7--\------------------------------

Riff B
Riff C
---------------------------------------------------------------------------|
---------------------------------------------------------------------------|
---------------------------------------------------------------------------|
--7------------------------------------------------------------------------|
--7---10--\----------------------------------------------------------------|
--9----8--\----------------------------------------------------------------|


----------------------------------------------------------------------------
                              Cant Stand You
----------------------------------------------------------------------------

Tune down 1/2 step!



  Can't stand the way...
Eb|---------------------|
Bb|---------------------|
Gb|---------------------|
Db|---------------------|
Ab|--2---4--5--4--------|
Eb|---------------------|

  
    Do I think you're dick yeah...
Eb|-------------------------------|
Bb|-------------------------------|
Gb|-------------------------------|
Db|-------------------------------|
Ab|--33333--44444----77777--66666-|
Eb|-------------------------------|


  Can't stand the way...
Eb|---------------------|
Bb|---------------------|
Gb|---------------------|
Db|---------------------|
Ab|--2---4--5--4--------|
Eb|---------------------|


    Do I think you're shit yeah...
Eb|----------------||---------------|
Bb|----------------||---------------|
Gb|----------------||---------------|
Db|----------------||---------------|
Ab|--33333--44444--||--77777--66666-|
Eb|----------------||---------------|

  I open my mouth after a while...
Eb|-------------| |------------------|
Bb|-------------| |------------------|
Gb|-------------| |------------------|
Db|-------------| |------------------|
Ab|--7---10--9--| |--7---10--9--7--8-|
Eb|--5---8---7--| |--5---8---7--5--6-|


 Can't stand the way...
Eb|---------------------|
Bb|---------------------|
Gb|---------------------|
Db|---------------------|
Ab|--2---4--5--4--------|
Eb|---------------------|

  
    Do I think you're sick yeah...
Eb|-------------------------------|
Bb|-------------------------------|
Gb|-------------------------------|
Db|-------------------------------|
Ab|--33333--44444----77777--66666-|
Eb|-------------------------------|


----------------------------------------------------------------------------
                                 Ddamm
----------------------------------------------------------------------------

Tune down 1/2 step!


   Swerwing through the street...
Eb|------------------------------|
Bb|------------------------------|
Gb|------------------------------|
Db|-----------8--7-7--6-6--------|
Ab|--5-5--6---6--5-5--4-4--------|
Eb|--3-3--4----------------------|

Hit her car, smash her up...
Eb|---------------------|
Bb|---------------------|
Gb|---------------------|
Db|---------------------|
Ab|-----5--4------------|
Eb|--3-------4----------|


Solo


Can't find any beer, it's way past...
Eb|------------------------------|
Bb|------------------------------|
Gb|------------------------------|
Db|-----------8--7-7--6-6--------|
Ab|--5-5--6---6--5-5--4-4--------|
Eb|--3-3--4----------------------|


Hit her car, smash her up...
Eb|---------------------|
Bb|---------------------|
Gb|---------------------|
Db|---------------------|
Ab|-----5--4------------|
Eb|--3-------4----------|


----------------------------------------------------------------------------
                         Guilty of Being White
----------------------------------------------------------------------------

Tune down 1/2 step    

This is a very fast song.

Verse:
    Aaaaahh...   I'm sorry for something i didn
Добавлено: 10.12.2013
Другие материалы по этой песне:
  • Аккорды и текст

Страница создана 10.12.2013
http://primanota.ru/slayer/undisputed-attitude-chords.htm
Привет, Гость.
Предлагаем пройти революционный курс по гитаре.
Подарок от PrimaNota.Ru, забирай!