PrimaNota.ru - самый крупный в мире бесплатный архив песенных текстов, аккордов, табулатур и нот


Slayer - The Antichrist - аккорды и текст, таба, бас-таба, драм-таба, видео

Регистрация Запомнить меня
Войти через:  Facebook Google Twitter Vk Yandex Mail.ru

Slayer - The Antichrist - аккорды и текст, таба, бас-таба, драм-таба, видео

Печатать
Просмотров: 388
The Antichrist
Slayer
Intro:
[e -----------------------------
b ------------------------------
g ----4--2------4--2--------4--- } repeat 2x
d -4-------4-3-------4--3---4-4-
A -4------------------------2-4-
E -2--------------------------2-]

Verse:
[e------------------------------
b-------------------------------
g---9--10---910-----------------7                       [G 12---]
[d---9--10---910---910--9-10---7]  repeat2x second time [D 12---]
[A --7--8----78----910--9-10---5] play instead of       [A 10---]
[E ------------------78---7-10--]      D chord          [E -----]

Chorus:
I am the Anti-Christ
D C A#
That's what I appear to be
D A# F ([xx355])

Back to Intro

Riff before solo
[e--------------------------------
b---------------------------------
G 9--9--x--9--9----7--7---3--10--7
D 9--9--x--9--9----7--7---3--10--7 } repeat under solo as well
A 7--7--x--7--7----5--5---1--8---5
E---------------------------------]
Добавлено: 13.11.2015
Другие материалы по этой песне:

Страница создана 03.03.2012
http://primanota.ru/slayer/the-antichrist-chords.htm
Привет, Гость.
Предлагаем пройти революционный курс по гитаре.
Подарок от PrimaNota.Ru, забирай!