PrimaNota.ru - самый крупный в мире бесплатный архив песенных текстов, аккордов, табулатур и нот


Slayer - Supremist - текст песни, таба, видео

Регистрация Запомнить меня
Войти через:  Facebook Google Twitter Vk Yandex Mail.ru

Slayer - Supremist - текст песни, таба, видео

Печатать
Просмотров: 253
Авторы музыки: Kerry King
Авторы текста: Kerry King
----------------------------------------------------------------------------
                             Supremist - SLAYER!
----------------------------------------------------------------------------

Tabbed by: rockonmetal83
Email: therabbit99999@yahoo.com

Tuning: D A D G B E (Low to High)

I have a bad feeling this is in drop B and this is kinda wrong but go ahead and try it. 
sounds good to me.

Riff 1 (00:01-00:19)

Guitar 1
e|-------------------------------------------------------------------------|
B|-------------------------------------------------------------------------|
G|-------------------------------------------------------------------------|
D|-3p0-0-0-0-0-0-0-0-0-0-0-0-0-3p0-0-0-3p0-6-6-6-6-6-6-6-6-6-6-6-6-6-------|
A|-------------------------------------------------------------------------|
D|-------------------------------------------------------------------------|
P.M.   . . . . . . . . . . . .     . .

Guitar 2
e|-------------------------------------------------------------------------|
B|-------------------------------------------------------------------------|
G|-------------------------------------------------------------------------|
D|-------------------------------------------------------------------------|
A|-------------------------------------------------------------------------|
D|-------------------------------------------------------------------------|

Guitar 1
e|-------------------------------------------------------------------------|
B|-------------------------------------------------------------------------|
G|-------------------------------------------------------------------------|
D|-3p0-0-0-0-0-0-0-0-0-0-0-0-0-3p0-0-0-------------------------------------|
A|-------------------------------------------------------------------------|
D|-------------------------------------1-3-5-3-5-7-6-4-2-5-3-1-------------|
P.M.   . . . . . . . . . . . .     . . . . . . . . . . . . . .

Guitar 2
e|-------------------------------------------------------------------------|
B|-------------------------------------------------------------------------|
G|-------------------------------------------------------------------------|
D|-------------------------------------------------------------------------|
A|-------------------------------------------------------------------------|
D|-------------------------------------------------------------------------|

Guitar 1
e|-------------------------------------------------------------------------|
B|-------------------------------------------------------------------------|
G|-------------------------------------------------------------------------|
D|---3p0-0-0-0-0-0-0-0-0-0-0-0-0-3p0-0-0-3p0-6-6-6-6-6-6-6-6-6-6-6-6-6-----|
A|-------------------------------------------------------------------------|
D|-------------------------------------------------------------------------|
P.M.     . . . . . . . . . . . .     . .

Guitar 2
e|-------------------------------------------------------------------------|
B|-------------------------------------------------------------------------|
G|-------------------------------------------------------------------------|
D|-------------------------------------------------------------------------|
A|-------------------------------------------------------------------------|
D|-------------------------------------------------------------------------|

Guitar 1
e|-------------------------------------------------------------------------|
B|-------------------------------------------------------------------------|
G|-------------------------------------------------------------------------|
D|---3p0-0-0-0-0-0-0-0-0-0-0-0-0-3p0-0-0-----------------------------------|
A|---------------------------------------1-3-5-3-5-7-6-4-2-5-3-1-----------|
D|-------------------------------------------------------------------------|
P.M.     . . . . . . . . . . . .     . . . . . . . . . . . . . .

Guitar 2
e|-------------------------------------------------------------------------|
B|-------------------------------------------------------------------------|
G|-------------------------------------------------------------------------|
D|-------------------------------------------------------------------------|
A|-------------------------------------------------------------------------|
D|---------------------------------------12*depress wammy bar*-------------|

Both guitars
e|-------------------------------------------------------------------------|
B|-------------------------------------------------------------------------|
G|-------------------------------------------------------------------------|
D|---3p0-0-0-0-0-0-0-0-0-0-0-0-0-3p0-0-0-3p0-6-6-6-6-6-6-6-6-6-6-6-6-6-----|
A|-------------------------------------------------------------------------|
D|-------------------------------------------------------------------------|
P.M.     . . . . . . . . . . . .     . .

e|-------------------------------------------------------------------------|
B|-------------------------------------------------------------------------|
G|-------------------------------------------------------------------------|
D|-3p0-0-0-0-0-0-0-0-0-0-0-0-0-3p0-0-0-------------------------------------|
A|-------------------------------------------------------------------------|
D|-------------------------------------1-3-5-3-5-7-6-4-2-5-3-1-------------|
P.M.   . . . . . . . . . . . .     . . . . . . . . . . . . . .

e|-------------------------------------------------------------------------|
B|-------------------------------------------------------------------------|
G|-------------------------------------------------------------------------|
D|---3p0-0-0-0-0-0-0-0-0-0-0-0-0-3p0-0-0-3p0-6-6-6-6-6-6-6-6-6-6-6-6-6-----|
A|-------------------------------------------------------------------------|
D|-------------------------------------------------------------------------|
P.M.     . . . . . . . . . . . .     . .

e|-------------------------------------------------------------------------|
B|-------------------------------------------------------------------------|
G|-------------------------------------------------------------------------|
D|---3p0-0-0-0-0-0-0-0-0-0-0-0-0-3p0-0-0-----------------------------------|
A|---------------------------------------5-5-5-5-4-4-4-4-------------------|
D|-------------------------------------------------------5-5-5-5-4-4-4-4---|
P.M.     . . . . . . . . . . . .     . . . . . . . . . . . . . . . . . .

Riff 2 (00:20-00:30)

Both guitars
e|-------------------------------------------------------------------------|
B|-------------------------------------------------------------------------|
G|-------------------------------------------------------------------------|
D|-------------------------------------------------------------------------|
A|-------------------------------------------------------------------------|
D|---3p0-0-0-0-0-0-0-0-0-0-0-0-0-3p0-0-0-3p0-6-6-6-6-6-6-6-6-6-6-6-6-------|
P.M.     . . . . . . . . . . . .     . .

e|-------------------------------------------------------------------------|
B|-------------------------------------------------------------------------|
G|-------------------------------------------------------------------------|
D|-------------------------------------------------------------------------|
A|-------------------------------------------------------------------------|
D|---3p0-0-0-0-0-0-0-0-0-0-0-0-0-3p0-0-0-3p0-1-1-1-1-1-1-1-1-1-1-1-1-------|
P.M.     . . . . . . . . . . . .     . .

e|-------------------------------------------------------------------------|
B|-------------------------------------------------------------------------|
G|-------------------------------------------------------------------------|
D|-------------------------------------------------------------------------|
A|-------------------------------------------------------------------------|
D|---3p0-0-0-0-0-0-0-0-0-0-0-0-0-3p0-0-0-3p0-7-7-7-6-6-6-3-3-3-2-2-2-------|
P.M.     . . . . . . . . . . . .     . .

| /  slide up
| \  slide down
| h  hammer-on
| p  pull-off
| ~  vibrato
| +  harmonic
| .  Mute note
============================================================================
Добавлено: 21.04.2012
Другие материалы по этой песне:
  • Аккорды и текст

Страница создана 21.04.2012
http://primanota.ru/slayer/supremist-chords.htm
Привет, Гость.
Предлагаем пройти революционный курс по гитаре.
Подарок от PrimaNota.Ru, забирай!