PrimaNota.ru - самый крупный в мире бесплатный архив песенных текстов, аккордов, табулатур и нот


Slayer - Ss-3 - текст песни, таба, видео

Регистрация Запомнить меня
Войти через:  Facebook Google Twitter Vk Yandex Mail.ru

Slayer - Ss-3 - текст песни, таба, видео

Печатать
Просмотров: 161
Авторы музыки: Kerry King, Jeff Hanneman
Авторы текста: Jeff Hanneman
 RIFF 1 INTRO x1

|x4
|-----------------------------------|-----------------|
|-----------------------------------|-----------------|
|-----------------------------------|-----------------|
|-0-2---3-1---0-2---5-3---0-2---3-1-|---9-8-----7-6---|
|-0-2---2-1---0-2---2-2---0-2---2-1-|---7-6-----5-4---|
|-----0-----0-----0-----0-----0-----|-8-----7-6-----5-|
      .     .     .     .             .     . .     .


|-----------------|-----------------|-----------------|-----------------|
|-----------------|-----------------|-----------------|-----------------|
|-----------------|-----------------|-----------------|-----------------|
|---9-8-----7-6---|---9-8-----7-6---|---9-8-----7-6---|-----------------|
|---7-6-----5-4---|---7-6-----5-4---|---7-6-----5-4---|-5---------------|
|-8-----7-6-----5-|-8-----7-6-----5-|-8-----7-6-----5-|-3---------------|
  .     . .     .   .     . .     .   .     . .     .



 RIFF 2 BREAK x1

|KING
|---------------------------------------------|
|---------------------------------------------|
|---------------------------------------------|
|-------3---------5---------3-----5-4---6-5---|
|-------1---------3---------1-----3-2-5-4-3-6-|
|-2-222---2-2-222---2-2-222---222-----3-----4-|
| . ...   . . ...   . . ...   ...
|
|HANNEMAN
|---------------------------------------------|
|---------------------------------------------|
|---------------------------------------------|
|---------------------------------------------|
|-4-------------------------------------------|
|-2-------------------------------------------|
   x


|KING
|---------------------------------------------|
|---------------------------------------------|
|---------------------------------------------|
|-------3---------5---------------------------|
|-------1---------3---------------------4-3-1-|
|-2-222---2-2-222---2-5-3-2-5-3-2-2-2-2-------|
| . ...   . . ...   . . . . . . . . . . . . .
|
|HANNEMAN
|---------------------------------------------|
|---------------------------------------------|
|---------------------------------------------|
|---------------------------------------------|
|---------------------------------------------|
|---------------------------------------------|



|KING
|---------------------------------------------|
|---------------------------------------------|
|---------------------------------------------|
|-------3---------5---------3-----5-4---6-5---|
|-------1---------3---------1-----3-2-5-4-3-6-|
|-2-222---2-2-222---2-2-222---222-----3-----4-|
| . ...   . . ...   . . ...   ...
|
|HANNEMAN
|---------------------------------------------|
|---------------------------------------------|
|---------------------------------------------|
|-------3--------5----------------------------|
|-------1--------3----------------------------|
|---------------------------------------------|
         x        x


|KING
|---------------------------------------------|
|---------------------------------------------|
|---------------------------------------------|
|-------3---------5---------------------------|
|-------1---------3---------------------4-3-1-|
|-2-222---2-2-222---2-5-3-2-5-3-2-2-2-2-------|
| . ...   . . ...   . . . . . . . . . . . . .
|
|HANNEMAN
|---------------------------------------------|
|---------------------------------------------|
|---------------------------------------------|
|-------3---------5---------------------------|
|-------1---------3---------------------4-3-1-|
|-------------------2-5-3-2-5-3-2-2-2-2-------|
         x          . . . . . . . . . . . . .



 FILL 1

|-------------------------|
|-------------------------|
|-------------------------|
|-------------------------|
|-------------------------|
|-3-2-0-3-2-0-0-0-0-3-2-0-|
  . . . . . . . . . . . .



 RIFF 3 VERSE x1

|-------------------------|-------------------------|
|-------------------------|-------------------------|
|-------------------------|-------------------------|
|-------------------------|-------------------------|
|-3-----------------------|-3-----------1-----------|
|-1-0-0-0-0-0-0-0-0-0-0-0-|-1-0-0-0-0-0-1-0-0-3-2-0-|
    . . . . . . . . . . .     . . . . .   . . . . .


|-------------------------|-------------------------|
|-------------------------|-------------------------|
|-------------------------|-------------------------|
|-------------------------|-------------------------|
|-3-----------------------|-3-----1-----------------|
|-1-0-0-0-0-0-0-0-0-0-0-0-|-1-0-0-1-0-0-3-2-0-1-2-3-|
    . . . . . . . . . . .     . .   . . . . . . . .


|-------------------------|-------------------------|
|-------------------------|-------------------------|
|-------------------------|-------------------------|
|-------------------------|-------------------------|
|-3-----------------------|-3-----------1-----------|
|-1-0-0-0-0-0-0-0-0-0-0-0-|-1-0-0-0-0-0-1-0-0-3-2-0-|
    . . . . . . . . . . .     . . . . .   . . . . .


|-------------------------|-------------------------|
|-------------------------|-------------------------|
|-------------------------|-------------------------|
|-------------------------|-------------------------|
|-3-----------------------|-3-----1-----------------|
|-1-0-0-0-0-0-0-0-0-0-0-0-|-1-0-0-1-0-0-5-3-2-5-3-2-|
    . . . . . . . . . . .     . .   . . . . . . . .



 RIFF 4 CHORUS x1

|x3
|-------------------------------------------------|
|-------------------------------------------------|
|-------------------------------------------------|
|-------------------------------------------------|
|-------------------------------------------------|
|-2-2-2-3-2-0-2-2-2-3-2-0-2-2-2-3-2-0-5-3-2-3-2-0-|
  . . . . . . . . . . . . . . . . . . . . . . . .


|x1
|-------------------------------------------------|
|-------------------------------------------------|
|-------------------------------------------------|
|-------------------------------------------------|
|-------------------------------------------------|
|-2-2-2-3-2-0-2-2-2-3-2-0-5-3-2-3-2-0-3-2-0-3-2-0-|
  . . . . . . . . . . . . . . . . . . . . . . . .



 RIFF 3 VERSE x1


 RIFF 4A CHORUS x1

|x3
|-------------------------------------------------|
|-------------------------------------------------|
|-------------------------------------------------|
|-------------------------------------------------|
|-------------------------------------------------|
|-2-2-2-3-2-0-2-2-2-3-2-0-2-2-2-3-2-0-5-3-2-3-2-0-|
  . . . . . . . . . . . . . . . . . . . . . . . .


|x1
|-------------------------------------------------|
|-------------------------------------------------|
|-------------------------------------------------|
|-------------------------------------6\5---5\4---|
|-------------------------------------4\3-6-3\2-5-|
|-2-2-2-3-2-0-2-2-2-3-2-0-2-2-2-3-2-0-----4-----3-|
  . . . . . . . . . . . . . . . . . .



 RIFF 5 BRIDGE x1

|----------------------|----------------------|
|----------------------|----------------------|
|----------------------|----------------------|
|--------6\5-----5\4---|--------6\5-----5\4---|
|-6------4\3-----3\2---|-6------4\3-----3\2---|
|-444444-----4-------3-|-444444-----4-------3-|
  .....      .       .   ......     .       .


|----------------------|----------------------|
|----------------------|----------------------|
|----------------------|----------------------|
|--------6\5-----5\4---|---4\3-----3\2--------|
|-6------4\3-----3\2---|---2\1-----1\0--------|
|-444444-----4-------3-|-------2-------1------|
  ......     .       .         .       .



 RIFF 4B BREAK x1

|-------------------------------------------------|
|-------------------------------------------------|
|-------------------------------------------------|
|-------------------------------------------------|
|-------------------------------------------------|
|-2-2-2-3-2-0-2-2-2-3-2-0-2-2-2-3-2-0-5-3-2-3-2-0-|
  . . . . . . . . . . . . . . . . . . . . . . . .


|-------------------------------------------------|
|-------------------------------------------------|
|-------------------------------------------------|
|-------------------------------------6\5---5\4---|
|-------------------------------------4\3-6-3\2-5-|
|-2-2-2-3-2-0-2-2-2-3-2-0-2-2-2-3-2-0-----4-----3-|
  . . . . . . . . . . . . . . . . . .



 RIFF 5A BRIDGE x1

|----------------------|----------------------|
|----------------------|----------------------|
|----------------------|----------------------|
|--------6\5-----5\4---|--------6\5-----5\4---|
|-6------4\3-----3\2---|-6------4\3-----3\2---|
|-444444-----4-------3-|-444444-----4-------3-|
  .....      .       .   ......     .       .


|----------------------|----------------------|
|----------------------|----------------------|
|----------------------|----------------------|
|--------6\5-----5\4---|---4\3-----3----------|
|-6------4\3-----3\2---|---2\1-----1----------|
|-444444-----4-------3-|-------2--------------|
  ......     .       .         .    x



 RIFF 6 INTERLUDE x4

|----------------------------------------|
|----------------------------------------|
|----------------------------------------|
|--------------------------------------8-|
|-6--------7h10-7------6--------7h10-6---|
|-6-000000------7-0000-6-000000----------|
    ......        ....   ......


|----------------------------------------|
|----------------------------------------|
|----------------------------------------|
|----------------------------------------|
|-6--------7h10-7------6-----5-----7-----|
|-6-000000------7-0000-6-000-5-000-7-----|
    ......        ....   ...   ...



 RIFF 7 VERSE x2

|-----------------------------------------------|
|-----------------------------------------------|
|-----------------------------------------------|
|-----------------------------------------------|
|-6--------7-6--------710-----------9----10-9-7-|
|-44444444-5-44444444-5-88888888888-77777-8-7-5-|
  ........   ........   ........... .....


|-----------------------------------------------|
|-----------------------------------------------|
|-----------------------------------------------|
|-----------------------------------------------|
|-6--------7-6--------710-----------9-7-910-9-7-|
|-44444444-5-44444444-5-88888888888-7-5-7-8-7-5-|
  ........   ........   ...........



 SOLO 1 HANNEMAN
  WAH      WAH    WAH    WAH_________________________________________
|-12b^^^^--12b^^--12b^^--12-13-12-13-12-13-15-13-12-------------------|
|-15b^^^^--15b^^--15b^^-----------------------------15-14-12-15-14-12-|
|---------------------------------------------------------------------|
|---------------------------------------------------------------------|
|---------------------------------------------------------------------|
|---------------------------------------------------------------------|

  WAH__________________    WAH_________    WAH___________________________
|-------------------------------------------------------------------------|
|-------------------------------------------------------------------------|
|-15-13-12-15-13-12-15b^^--12-15-13-10b^^--9-10-9-10-9-10-12-10-9-12-10-9-|
|-------------------------------------------------------------------------|
|-------------------------------------------------------------------------|
|-------------------------------------------------------------------------|

  WAH____________________________________ WAH
|----------------------------------------------------------------------|
|----------------------------------------------------------------------|
|----------------------------------------------------------------------|
|-11-9-8-11-9-8--------------------------------------------------------|
|---------------10-8-7-10-8-7------------------------------------------|
|-----------------------------9-7-6-9-7-6-16b\\\\SLIDE SLOW\\\\\\\\----|




 RIFF 6A x4 UNDER SOLO 1

|----------------------------------------|
|----------------------------------------|
|----------------------------------------|
|----------------------------------------|
|-6--------------------6-----5-----7-----|
|-6-000000000000000000-6-000-5-000-7-----|
    ..................   ...   ...



 RIFF 6B BREAK x1

|KING
|----------------------------------------|
|----------------------------------------|
|----------------------------------------|
|--------------------------------------8-|
|-6--------7h10-7------6--------7h10-6---|
|-6-000000------7-0000-6-000000----------|
|   ......        ....   ......
|
|HANNEMAN
|----------------------------------------|
|----------------------------------------|
|----------------------------------------|
|----------------------------------------|
|-6--------------------------------------|
|-6--------------------------------------|
   x


|KING
|----------------------------------------|
|----------------------------------------|
|----------------------------------------|
|----------------------------------------|
|-6--------7h10-7------6-----5-----7-----|
|-6-000000------7-0000-6-000-5-000-7-----|
|   ......        ....   ...   ...
|
|HANNEMAN
|----------------------------------------|
|----------------------------------------|
|----------------------------------------|
|----------------------------------------|
|----------------------------------------|
|----------------------------------------|



|KING
|----------------------------------------|
|----------------------------------------|
|----------------------------------------|
|--------------------------------------8-|
|-6--------7h10-7------6--------7h10-6---|
|-6-000000------7-0000-6-000000----------|
|   ......        ....   ......
|
|HANNEMAN
|----------------------------------------|
|----------------------------------------|
|----------------------------------------|
|----------------------------------------|
|-6--------------------6-----------------|
|-6--------------------6-----------------|
   x                    x


|KING
|----------------------------------------|
|----------------------------------------|
|----------------------------------------|
|----------------------------------------|
|-6--------7h10-7------6-----5-----7-----|
|-6-000000------7-0000-6-000-5-000-7-----|
|   ......        ....   ...   ...
|
|HANNEMAN
|----------------------------------------|
|----------------------------------------|
|----------------------------------------|
|----------------------------------------|
|-6--------------------x\\\\\\\\\\\\-----|
|-6--------------------------------------|
   x



 RIFF 7 VERSE x2


 SOLO 2 KING
  N.H. BAR        WAH & BAR/\/\/\/\/\/\N.H. WAH & BAR/\/\/\/\/\/\/\/\/\
|-----------------------------------------------------------------------|
|-----------------------------------------------------------------------|
|-12//\\\\\\\\----12p9p0h12p9p0h12p9p0h9/\\-12p9p0h12p9p0h12p9p0h12p9p0-|
|-----------------------------------------------------------------------|
|-----------------------------------------------------------------------|
|-----------------------------------------------------------------------|

  WAH & BAR N.H. BAR       WAH & BAR                    BAR
|--------------------------------------------------------------------|
|-------------------------------------------------21-23b///\///\\----|
|-0\\\\\\\\h5//\/\/\/\\----0\\\\\\\\h7////\\\\-----------------------|
|--------------------------------------------------------------------|
|--------------------------------------------------------------------|
|--------------------------------------------------------------------|

  WAH________________________________________________     WAH & BAR
|-191919-22-21-1919-22-21-1919-22-21-1919-22-21-19-22b^^-----------|
|---------------------------------------------------------21b\\\\--|
|------------------------------------------------------------------|
|------------------------------------------------------------------|
|------------------------------------------------------------------|
|------------------------------------------------------------------|

  WAH & BAR/\             BAR                          WAH & BAR
|-------------24b^^^^----------------------------------------------|
|-24p21h24p21------------------------------------------------------|
|------------------------------------------------------0\\\\/\/\\--|
|---------------------------------------------x\\\\----------------|
|---------------------------------------------x\\\\----------------|
|------------------------0\\\\DEEP DOWN/\/\\-----------------------|

  WAH & BAR/\/\/\/\/\/\   BAR
|-----------------------------------------|
|-----------------------------------------|
|-3////////////////////24b/\/\\--x\\\\----|
|--------------------------------x\\\\----|
|-----------------------------------------|
|-----------------------------------------|



 RIFF 6A x4 UNDER SOLO 2


 RIFF 8 VERSE x4

|---------------------------------------------|
|---------------------------------------------|
|---------------------------------------------|
|---------------------------------------------|
|---------------------------------------------|
|-0-22222222-3-11111111-0-22222222-5-33333333-|
  . ........ . ........ . ........ . ........

|---------------------------------------------|
|---------------------------------------------|
|---------------------------------------------|
|---------------------------------------------|
|---------------------------------------------|
|-0-22222222-3-11111111-0-22222222-1-33333333-|
  . ........ . ........ . ........ . ........



 RIFF 6 OUTRO x2


 RIFF 6C 0UTRO x1

|KING
|----------------------------------------|
|----------------------------------------|
|----------------------------------------|
|--------------------------------------8-|
|-6--------7h10-7------6--------7h10-6---|
|-6-000000------7-0000-6-000000----------|
|   ......        ....   ......
|
|HANNEMAN
|----------------------------------------|
|----------------------------------------|
|----------------------------------------|
|----------------------------------------|
|-6--------------------6-----------------|
|-6--------------------6-----------------|
   x                    x


|KING
|----------------------------------------|
|----------------------------------------|
|----------------------------------------|
|----------------------------------------|
|-6--------7h10-7------6-----5-----7-----|
|-6-000000------7-0000-6-000-5-000-7-----|
|   ......        ....   ...   ...
|
|HANNEMAN
|----------------------------------------|
|----------------------------------------|
|----------------------------------------|
|----------------------------------------|
|-6--------------------6-----5-----7-----|
|-6--------------------6-000-5-000-7-----|
   x                     ...   ...


|KING
|----------------------------------------|
|----------------------------------------|
|----------------------------------------|
|----------------------------------------|
|-6--------7h10-7------6-----5-----7-----|
|-6-000000------7-0000-6-000-5-000-7-----|
|   ......        ....   ...   ...
|
|HANNEMAN
|----------------------------------------|
|----------------------------------------|
|----------------------------------------|
|----------------------------------------|
|-6--------------------6-----5-----7-----|
|-6--------------------6-000-5-000-7-----|
   x                     ...   ...



 FILL 2 END

|----------------------------------------|
|----------------------------------------|
|----------------------------------------|
|----------------------------------------|
|-6-----4-----5-----7\\\\\\\\------------|
|-6-000-4-000-5-000-7\\\\\\\\------------|
    ...   ...   ...
Добавлено: 13.11.2015
Другие материалы по этой песне:
  • Аккорды и текст

Страница создана 06.05.2012
http://primanota.ru/slayer/ss-3-chords.htm
Привет, Гость.
Предлагаем пройти революционный курс по гитаре.
Подарок от PrimaNota.Ru, забирай!