PrimaNota.ru - самый крупный в мире бесплатный архив песенных текстов, аккордов, табулатур и нот


Slayer - Skeletons Of Society - аккорды и текст, таба, бас-таба, видео

Регистрация Запомнить меня
Войти через:  Facebook Google Twitter Vk Yandex Mail.ru

Slayer - Skeletons Of Society - аккорды и текст, таба, бас-таба, видео

Печатать
Просмотров: 348
Уроки эстрадного вокала в Санкт-Петербурге
Авторы музыки: Kerry King
Авторы текста: Kerry King
Skeletons Of Society
Slayer
		   TAB: Skeletons of Society by Slayer
tabbed by angelboy@mentor.cc.purdue.edu

Here is the beginning of Skeletons of Soceity.  I have not tried real hard
to get the rest.  I am working on it!

	angelboy@mentor.cc.purdue.edu

Eb-------------------------------------------------------------------
Bb-------------------------------------------------------------------
Gb-------------------------------------------------------------------
Db-------------------------------------------------------------------
Ab------------------3-3-------------------3-3-------------------7-7--
Eb-0-0-0-0-0--0-0-0-1-1--0-0-0-0-0--0-0-0-1-1--4-4-4-4-4--4-4-4-5-5--

Eb-----------------------
Bb-----------------------
Gb-----------------------
Db-----------------------
Ab------------------7-7--
Eb-4-4-4-4-4--4-4-4-5-5--





                           Skeletons of Society

                                Slayer

This is a bit rough, but see what you think.

Tune down to Eb (half a step)

Riff 1a             Riff 1b
e|-----------------|-----------------|
B|-----------------|-----------------|
G|-----------------|-----------------|
D|-----------------|-----------------|
A|-----------3---3-|-----------7---7-|
E|-00000-0-001-001-|-44444-4-445-445-|
   ..... . ..  ..    ..... . ..  ..

Riff 2
e|----------------|
B|----------------|
G|----------------|
D|----------------|
A|-8---7--6---5---|hold the last chord the 1st time,
E|-6---5--4---3---|mute it completely the 2nd.

Riff 3
e|---------------------------------|
B|---------------------------------|
G|---------------------------------|
D|---------------------------------|
A|-2----7--9----2----7--9----9\-9\-|
E|-0----5--7----0----5--7----7\-7\-|

Riff 4
e|------------------------------|------------------------|
B|------------------------------|------------------------|
G|------------------------------|------------------------|
D|------------------------------|------------------------|
A|---------------------9-8---88-|------------9-8---88-88-|
E|-0000000000000etc00007-6---66-|00000etc00007-6---66-66-|
   ....................          ............

--
Matt Javes              Everything above represents my opinion only.
                                Except when I'm lying....

        matt@redstart.demon.co.uk     
Добавлено: 30.07.2013
Другие материалы по этой песне:

Страница создана 08.04.2012
http://primanota.ru/slayer/skeletons-of-society-chords.htm
Привет, Гость.
Предлагаем пройти революционный курс по гитаре.
Подарок от PrimaNota.Ru, забирай!